Vértigo

Tabs, letra y acordes de 'Vértigo' por Dolores Delirio

Versiones disponibles: Tablatura para guitarra (TAB) - Letra y acordes - Tablatura para bajo (bass tab)

 RE?                         ---
e------------------------ I ---------------------------I
B------------------------ I ---------------------------I
G--6----6----6-6----6-- - I -6----6-----6-6----6-----6-I
D----7----7------7----7-- I ---4-----4------4-----4----I
A-5----5---5-------5----5 I 4----4-----4------4-----4--I
E------------------------ I ---------------------------I

      RE5      FA#5 (4veces)
     BASE
 el oculto placer            desnudo el silencio
      RE                      FA#
e---2-----2----2-2-----2--I---6-----6----6-6-----6---I
B-----3----3-------3----3-I-----7----7-------7----7--I
G-------2----2-------2---2I-6-----6----6-------6---6-I
D-0-----------------------I--------------------------I
A-------------------------I--------------------------I
E-------------------------I--------------------------I

solo el ruido del viento  cortado en tu cuerpo, la risa del amor
   SOL                         FA#
e---3-----3----3-3-----3--I---2-----2----2-2-----2---I
B-----3----3-------3----3-I-----2----2-------2----2--I
G-4----4----4-------4----4I-2-----2----2-------2---2-I
D-------------------------I--------------------------I
A-------------------------I--------------------------I
E-------------------------I--------------------------I

pntoi
       RE5                                   FA#5
e-10101010---12-12---10-10----9-9-9-9------------------I
B-------------------------------------10-10------------I
G-------------------------------------------11-11-11-11I
D------------------------------------------------------I
A------------------------------------------------------I
E------------------------------------------------------I
       RE5                                    FA#5
e-101010101010---12-12---14141414---9-9-9-9-------------I
B--------------------------------------------10-10-10-10I
G-------------------------------------------------------I
D-------------------------------------------------------I
A-------------------------------------------------------I
E-------------------------------------------------------I

el poema de aquel a media lus  y una trampa tendida
  RE                          FA#
e---2-----2----2-2-----2--I---6-----6----6-6-----6---I
B-----3----3-------3----3-I-----7----7-------7----7--I
G-------2----2-------2---2I-6-----6----6-------6---6-I
D-0-----------------------I--------------------------I
A-------------------------I--------------------------I
E-------------------------I--------------------------I

caminado despacio y sin final como esprando caer
  SOL                         FA#
e---3-----3----3-3-----3--I---2-----2----2-2-----2---I
B-----3----3-------3----3-I-----2----2-------2----2--I
G-4----4----4-------4----4I-2-----2----2-------2---2-I
D-------------------------I--------------------------I
A-------------------------I--------------------------I
E---------------------------I--------------------------I

 como esperando  a caerrr….
    RE                        FA#
e---2-----2----2-2-----2--I---6-----6----6-6-----6---I
B-----3----3-------3----3-I-----7----7-------7----7--I
G-------2----2-------2---2I-6-----6----6-------6---6-I
D-0-----------------------I--------------------------I
A-------------------------I--------------------------I
E-------------------------I--------------------------I

    SOL                       FA#
e---3-----3----3-3-----3--I---6-----6----6-6-----6---I
B-----3----3-------3----3-I-----7----7-------7----7--I
g-4----4----4-------4----4I-6-----6----6-------6---6-I
D-------------------------I--------------------------I
A-------------------------I--------------------------I
E-------------------------I--------------------------I

coro:

    tan  dulce es el vértigooooo   caer caer
e------------------------I-----------------------------I
B------------------------I-----------------------------I
G--6----6----6-6----6----I-6---6----6----6-6-----6----6I
D----7----7------7----7--I------4----4------4-----4----I
A-5----5---5-------5----5I--4----4----4------4-----4---I
E------------------------------------------------------I
    tan  dulce es el vértigooooo   caer caer caer caer caer
e------------------------I-------------------------------I
B------------------------I-------------------------------I
G--6----6----6-6----6----I-6---6----6-----6-6-----6----6-I
D----5----5------5----5--I-------4----4-------4-----4----I
A-5----5---5-------5----5I---4----4----4-------4-----4---I
e------------------------I-------------------------------I

pntoi
       RE5                                   FA#5
e-1010101010---12-12---10-10----9-9-9-9--------------------I
B---------------------------------------10-10--------------I
G---------------------------------------------11-11-11-11--I
D----------------------------------------------------------I
A----------------------------------------------------------I
E----------------------------------------------------------I
       RE5                                   FA#5
e-1010101010---12-12---141414141414---9-9-9-9-------------I
B----------------------------------------------10-10-10-10I
G---------------------------------------------------------I
D---------------------------------------------------------I
A---------------------------------------------------------I
E---------------------------------------------------------I

   a veces mirarte con los ojos cerrados
      RE                     FA#
e---2-----2----2-2-----2--I---6-----6----6-6-----6---I
B-----3----3-------3----3-I-----7----7-------7----7--I
G-------2----2-------2---2I-6-----6----6-------6---6-I
D-0-----------------------I--------------------------I
A-------------------------I--------------------------I
E-------------------------I--------------------------I

 tan solo tokando puedo sentirte mas  (mas mas )
      SOL                    FA#
e---3-----3----3-3-----3--I---2-----2----2-2-----2---I
B-----3----3-------3----3-I-----2----2-------2----2--I
G-4----4----4-------4----4I-2-----2----2-------2---2-I
D-------------------------I--------------------------I
A-------------------------I--------------------------I
E-------------------------I--------------------------I

  caminando despacio y sin final

      RE                     FA#
e---2-----2----2-2-----2--I---6-----6----6-6-----6---I
B-----3----3-------3----3-I-----7----7-------7----7--I
G-------2----2-------2---2I-6-----6----6-------6---6-I
D-0-----------------------I--------------------------I
A-------------------------I--------------------------I
E-------------------------I--------------------------I

  como esperando a caer  como esperando  a caer
      SOL                    FA#
e---3-----3----3-3-----3--I---2-----2----2-2-----2---I
B-----3----3-------3----3-I-----2----2-------2----2--I
G-4----4----4-------4----4I-2-----2----2-------2---2-I
D-------------------------I--------------------------I
A-------------------------I--------------------------I
E-------------------------I--------------------------I

coro:
 tan dulce es el veeeeeeeertigo  caer caer caer
 RE5                                        FA#5
e-10101010--12-12---10-10----------------------------------I
B-------------------------13-13-13-13----------------------I
G-------------------------------------10-10--11-11-11-11-11I
D----------------------------------------------------------I
A----------------------------------------------------------I
E----------------------------------------------------------I

 RE5                                    FA#5
e--10101010---12-12---141414141414---9-9-9-9--------------I
B----------------------------------------------10-10-10-10I
G---------------------------------------------------------I
D---------------------------------------------------------I
A---------------------------------------------------------I
E---------------------------------------------------------I

PUEDEN REPETIR  LA BASE O STO 03:00

 CAER (CAER)  CAER (CAER)   CAER  (CAER)  CAER(CAER)

e-- -10-----I----10------------10------------10-----------I
B-10-----10-I---------10-----------10------------10-------I
G-----------I---------------------------------------------I
D-----------I---------------------------------------------I
A-----------I---------------------------------------------I
E-----------I---------------------------------------------I

 CAER (CAER)     CAER (CAER)    CAER(CAER)   CAER(CAER)

e---12-12--------12--12----------12--12----------12--12-----I
B10-------10--10--------10---10----------10--10----------10-I
G-----------------------------------------------------------I
D-----------------------------------------------------------I
A-----------------------------------------------------------I
E-----------------------------------------------------------I

REPITEN 4VECES
 TAN DULCE ES EL VERRRRRRRRRRRRRRRTIGO
      RE                     FA#
e---2-----2----2-2-----2--I---6-----6----6-6-----6---I
B-----3----3-------3----3-I-----7----7-------7----7--I
G-------2----2-------2---2I-6-----6----6-------6---6-I
D-0-----------------------I--------------------------I
A-------------------------I--------------------------I
E-------------------------I--------------------------I
  03:46
      RE                     FA#
e-18--16-I5-----18-16--15------18-16--15---18-16-15--I
B----------------------------------------------------I
G----------------------------------------------------I  2VCS
D----------------------------------------------------I
A----------------------------------------------------I
E----------------------------------------------------I

TAN DULCE ES EL VERTIGOOOOOOOOOOO (03:57)

e--10-----------------------------------------------I
B--------------13------------14--------------13-----I
G---------------------------------------------------I  2VCS
D---------------------------------------------------I
A---------------------------------------------------I
E---------------------------------------------------I
                                                     (04:27)
                             RE5  RE5 RE5 RE5  FA#5    RE5
e-----------------------------------------------------I
B-----------------------------------------------------I
G--6----6----6-6----6-----6---7-I--7---7---7--------7-I
D----7----7------7----7-------7-I--7---7---7----4---5-I
A-5----5---5-------5----5-----5-I--5---5---5----4---5-I
E-----------------------------------------------2-----I

  -----------------FINISHHHHHHH---------

WENO C OJALA KE LEs SIRVA DE ALGO ... XAO
Versión 2 - Vértigo (Letra y acordes)
Intro: (D-F#m)x4

El oculto placer,D
desnudo el silencio Fm#
sólo el ruido del viento G
cortando en tu cuerpo Fm#
la brisa del amor.D

(D-Fm#)x3

Un poema de piel a media luz D-Fm#
una trampa tendida
caminando despacio y sin mirar G-Fm#
como esperando caer.D
como esperando caer.D-Fm#-G-Fm#

Tan dulce es el vértigo D-Fm#
caer, caer, caer.
Tan dulce es el vértigo G-Fm#
caer, caer, caer.
caer, caer, caer.
caer, caer, caer, caer D-Fm#

(D-F#m)x3

Aún sin mirarte,D
con los ojos cerrados Fm#
tan solo tocando G
puedo sentirte más Fm#
caminando despacio y sin mirar D-Fm#
como esperando caer.G
como esperando caer.Fm#

Tan dulce es el vértigo D-Fm#
caer, caer, caer.
Tan dulce es el vértigo G-Fm#
caer, caer, caer.
caer, caer, caer.
caer, caer, caer, caer D-Fm#

D-F#m

caer, caer, caer, caer D-Fm#
caer, caer, caer. caer G
caer, caer, caer, caer Fm#
caer, caer, caer, caer D
caer, caer, caer, caer D
caer, caer, caer, caer Fm#
caer, caer, caer, caer G
caer…Fm#

Tan dulce es el vértigo…D-Fm#-D-Fm#
Tan dulce es el vértigo…D-Fm#-D-Fm#
Tan dulce es el vértigo…D-Fm#-D-Fm#
Tan dulce es el vértigo…D-Fm#-G-Fm#

D-F#m
Versión 3 - Vértigo (Tablatura para bajo (bass tab))
Introducción
G|--------------------------------|
D|--------------------------------|
A|55555555555555554444444444444444|(x2)
E|--------------------------------|

G|------------------------------------|
D|------------------------------------|
A|5---5--5-5--5--5--4---4--4-4--4--4--|
E|-5-5-55---55-55-5--5-5-55---55-55-5-|

G|-----------------------------------|
D|-----------------------------------|
A|5--5---5-5--5--5--9999999999999999-|
E|-55-5-5---55-55-5------------------|


Coro
G|-----------------------------------|
D|-----------------------------------|
A|5555555575575575-9999999999999999--|
E|-----------------------------------|

Verso

G|-------------------------------------------------------------------|
D|-------------------------------------------------------------------|
A|5555555555555555---------------------------------------------------|
E|----------------0h2222222222222223333333333333333222222222222222222|

Verso 2
G|-------------------------------------------------------------------|
D|-------------------------------------------------------------------|
A|5-5-5-5-5-5-5-5----------------------------------------------------|
E|----------------2-2-2-2-2-2-2-2-3-3-3-3-353353353---2-2-2-2-2-2-2--|

Orden:
Introducción
Coro(x4)
Verso
Coro(x2)
Verso(x2)
Verso2
Coro(x4)
Verso(x2)
Coro(x4)
Verso2(x2)
Coro(x6)
Verso2

Esta canción la saque con la ayuda de Luis (Lechon), si es que esta
mal no es mi culpa no soy bajista, cualquier duda o comentario escribanme
al correoy si no les gusta el tab me escriben a
vetealamierd@mari.con

PDT si desean la version en guitar pro me mandan un correo aunque
aun no la acabo
dedicado al Llorón metalero web*#....

El material contenido en esta página es para exclusivo uso privado y con propósito meramente educativo, se prohibe su reproducción y uso con fines comerciales