Una Flor

Acordes de la canción 'Una Flor' de La Beriso

Intro : Am - Dm - Am - E - Am

  Am                      Dm
|-----------------------------------1-----------1----|
|-------1-----------1-------------3---3-------3---3--|
|-----2---2-------2---2---------2-------2---2-------2|
|---2-------2---2-------2-----0-----------0----------|
|-0-----------0-----------0h3------------------------|
|----------------------------------------------------|

  Am           E            Am
|--------------------0----------------------------|
|-------1--------------0----------1^3-1-0-1-------|
|-----2---2--------------1------2-----------------|
|---2-------2------2----------2-------------------|
|-0--------------2----------0---------------------|
|--------------0----------------------------------|


Como intro:

Am                    Dm
Ella buscaba un amor, el saliendo del dolor
Am                  E              Am
en la vida se cruzaron y todo marchó.
Am                  Dm
Para poder resistir, a su terrible adicción,
Am                 E                Am
ella vendia sus flores en la estación.

G                    Am
Y sola quedó, en lo oscuro de su habitación,
G                       Am
preguntandose. ¿Es muy tarde y porque no volvió?
E                                     Am
El solo quiso llevarle una flor a su amor.. (x2)

Para poderla llevar a un lugar mucho mejor
el siempre salia de caño por constitución
Ella nunca se enteró, porque el jamas regresó,
en una noche rabiosa alguien se la dió.

Solo:

                          G
|---------------------------------------------|
|---------------------------------------------|
|--------------2-5-2-5~7-7b-7b-7-5-7-----5-5--|
|----------2-5-------------------------7-5-5-7|
|------3-5------------------------------------|
|--3-5----------------------------------------|

 Am                           G                Am
|-----------------------------------------------------------|
|-----------------------------------------------------------|
|-5-7-7b-7-5------5-------5-7b-7b-7-5-7-----5-5---5-7-7b-7-5|
|-------------7-7-5-7-5-7-----------------7-5-5-7-----------|
|-----------------------------------------------------------|
|-----------------------------------------------------------|

               E                            Am
|--------------10b-10b-10b-10-12-10-12-10-12-15-12-10-12-10-|
|-----------------------------------------------------------|
|-----5-----------------------------------------------------|
|-7-7-5-7-5-7-----------------------------------------------|
|-----------------------------------------------------------|
|-----------------------------------------------------------|

|-12-15-12-10-12-10-12/15-12-10-12-10-12/15-12-|
|----------------------------------------------|
|----------------------------------------------|
|----------------------------------------------|
|----------------------------------------------|
|----------------------------------------------|

              E                     Am
|-12-10-12-10-10b-10b-10b-10------------------------------|
|-------------------------------11b-10-8-10-8-------------|
|-------------------------------10b-----------9-7---------|
|-------------------------------------------------10-9-7--|
|---------------------------------------------------------|
|---------------------------------------------------------|


Triste la vez caminar, triste la vez sonreir
y la mataron en vida, te juro la vi.
Se quedó sin la ilusión de lo que le prometió
¿Por qué esa maldita bala dio en su corazón?

G           Am
Y sola quedó, en lo oscuro de su habitación,
G            Am
preguntandose. ¿Es muy tarde y porque no volvió?
E                           Am
El solo quiso llevarle una flor a su amor.. (x3)

El material contenido en esta página es para exclusivo uso privado y con propósito meramente educativo, se prohibe su reproducción y uso con fines comerciales