Enloquecer

Acordes de la canción 'Enloquecer' de La Beriso

Versiones de esta canción: Letra y acordes - Tablatura para guitarra (TAB)

Intro: G-B7-C-G-Am-Em-D (X2)

G             D              Em    D
Fue esa noche que quizas tal vez
C      G            D
Le puse nombre a tu piel
G            D               Em
Sos tan rica como aquel fernet
D                 C
Que de tus labios probe
G                 D
Antes de comer tu miel

G          D                Em
Hoy quiero dormir sobre tu amor
D                 C         G             D
Vos descartame el dolor, el resto lo hago yo
G           D             Em
No se hasta cuando te tendre
       D            C
En tus brazos moriré
      G            D
No te vayas esta vez

G          B7               C
Vamos esta noche a enloquecer
   G                Am           Em          D
La luna pongo a tus pies y en mi cama vos tu piel
G           B7             C   G                 Am
Vamos yo te invitare a soñar, juntos a la eternidad
     Em            D
Dale vamos a probar

Base del solo: G-B7-C-G-Am-Em-D (x2)
Luego hace un arpegio con estos acordes:G-D-Em-D-C-G-D
(El arpegio aun no lo pude sacar,si logro sacarlo lo subire
 pronto,disculpen)

G             D               Em  D
Fue esa noche que quizas tal vez
C  G                    D
Le puse nombre a tu piel

G          B7               C
Vamos esta noche a enloquecer
   G                Am           Em          D
La luna pongo a tus pies y en mi cama vos tu piel
G           B7             C   G                 Am
Vamos yo te invitare a soñar, juntos a la eternidad
     Em            D
Dale vamos a probar

Final: G-B7-C-G-Am-Em-D (X2)

Nota: la guitarra tiene que estar afinada en Mi bemol
Versión 2 - Enloquecer (Tablatura para guitarra (TAB))
La cancion esta medio tono mas baja que la afinacion estandar pero es mas
facil y rapido hacer los "Bemoles" de las notas (si bajan de tono la
guitarra tienen que correr una casillas mas adelante todos los punteos)

INTRO: Gb Bb Cb Gb Abm Ebm Db

E|---------------------------------------------------------------------9---|
B|-------------------------------------------------------------------------|
G|--------7--5/7-8-------------------11-13-13^13-11-----13^13--11/9-11-----|
D|-8--6/8----------/9-8--8-6-8----13----------------13---------------------|
A|-------------------------------------------------------------------------|
e|-------------------------------------------------------------------------|

E|---------------------------------18^18-----------------------16^-16/14-|
B|-11----12-14-----15----18-/21-18--------19^19--------------------------|
G|----11--------15----15-------------------------18^-18/16-18^-----------|
D|-----------------------------------------------------------------------|
A|-----------------------------------------------------------------------|
e|-----------------------------------------------------------------------|

E|-------------------------|
B|-16-18^18-16-16p18p16----|
G|----------------------18-|
D|-------------------------|
A|-------------------------|
e|-------------------------|

Gb            Db             Ebm   Db
Fue esa noche que quizas tal vez
Cb     Gb           Db   (RIFF 1)
Le puse nombre a tu piel
Gb           Db              Ebm
Sos tan rica como aquel fernet
Db                Cb
Que de tus labios probe
Gb                Db   (RIFF 2)
Antes de comer tu miel

Gb         Db               Ebm
Hoy quiero dormir sobre tu amor
Db                Cb        Gb            Db (RIFF 3)
Vos descartame el dolor, el resto lo hago yo
Gb          Db            Ebm
No se hasta cuando te tendre
       Db           Cb
En tus brazos moriré
      Gb           Db
No te vayas esta vez

Gb         Bb               Cb
Vamos esta noche a enloquecer
   Gb               Abm          Ebm         Db
La luna pongo a tus pies y en mi cama vos tu piel
Gb          Bb             Cb  Gb                Abm
Vamos yo te invitare a soñar, juntos a la eternidad
     Ebm        Db
Dale vamos a probar


SOLO: Gb Bb Cb Gb Abm Ebm Db (x2)


DESPUES DEL SOLO: Gb Db Emb Db Cb Gb Db

E|-----------------------------------------------------------------|
B|-------------4-6-7---6-----------------------------------6---7---|
G|-----3-4---------------8-6---6-8-4---4-6-3-------6---8-6---6---6-|
D|-----------6---------------6-------4-------4-6-4---6-------------|
A|---4-----4---------6---------------------------------------------|
e|-2---------------------------------------------------------------|


Gb            Db              Ebm Db
Fue esa noche que quizas tal vez
Cb Gb                   Db
Le puse nombre a tu piel

Gb         Bb               Cb
Vamos esta noche a enloquecer
   Gb               Abm          Ebm         Db
La luna pongo a tus pies y en mi cama vos tu piel
Gb          Bb             Cb  Gb                Abm
Vamos yo te invitare a soñar, juntos a la eternidad
     Ebm           Db
Dale vamos a probar...  [(INTRO)]


       ((RIFF 1))                  ((RIFF 2))

E|----------------------|    E|-------------------|
B|--------------4-5^5---|    B|-3/4-----6/7-9-11~-|
G|----------4-6-------6-|    G|-3/4---------------|
D|-----4-6--------------|    D|-----6-------------|
A|-4-6------------------|    A|-------------------|
e|----------------------|    e|-------------------|

         ((RIFF 3))

E|----------------------------|
B|----------------------------|
G|-13^13-11-------------------|
D|----------13^13-11-11p13-11-|
A|----------------------------|
e|----------------------------|


Ya estoy sacando hasta la mitad del solo, mas adelante lo subo

PD: Mandale un beso a tu hermana rodrigo ;)

El material contenido en esta página es para exclusivo uso privado y con propósito meramente educativo, se prohibe su reproducción y uso con fines comerciales