No me olvides

Acordes de la canción 'No me olvides' de La Beriso

Versiones de esta canción: Letra y acordes - Tablatura para guitarra (TAB) - Letra y acordes - Letra y acordes

Intro: B-C#m-E-B

B                    C#m
Estamos llenos de historias
                     E
Algunas que no perdonan
                    B
Y que pierden la razón.
B                      C#m
Al pasar se escucha un grito
                      E
Que viene por el pasillo y grita:
             B
No te vayas hoy.
F#                 E
Y el día menos pensado,
                        B
Yo me iré hacia el otro lado
                    F#                    B
Solo para estar con vos y escuchar tu voz.

B-C#m-E-B

No me olvides nunca, dijo
Un día le encuentra escrito
Tatuado al corazón
Diez rosas en la mano
Sus ojos llenos de llanto
Y de pastillas se llenó.
Era tanto lo perdido
Imposible resistirlo y sus ojos cerro
Y así se despidió...

Solo: B-C#m-E-B (X2)

Y el día menos pensado
Yo me iré hacia otro lado
Solo para estar con vos y escuchar tu voz

B             C#m
No me olvides no
              E
No me olvides no
              B
No me olvides no...(X2)

Estamos llenos de historias
Algunas que no perdonan
Y que pierden la razón

Aguante La Beriso ;)
Versión 2 - No me olvides (Tablatura para guitarra (TAB))
TEMON DE LA BERISO CON SOLO INCLUIDO, SUBO ESTA TAB POR QUE NO HE ENCONTRADO
NINGUN FRASEO DEL SOLO DE ESTE TEMA... EL SOLO ESTA EN LA
PENTATONICA MAYOR DE "B" SERIA LA MISMA QUE,
LA PENTATONICA MENOR DE "G#"
~IMPORTANTE: EL SOLO ESTA SACADO OBVIAMENTE DE OIDO PERO SIEMPRE RESPETANDO A
LO QUE EL GUITARRISTA HACE, ASI QUE PRESTEN MUCHA ATENCION AL TEMA Y AL SOLO
PARA PODER COORDINAR BIEN...

Intro: B-C#m-E-B (piano)

B                    C#m
Estamos llenos de historias
                     E
Algunas que no perdonan
                    B
Y que pierden la razón.
B                      C#m
Al pasar se escucha un grito
                      E
Que viene por el pasillo y grita:
             B
No te vayas hoy.

    (GUITARRA)

F#                 E
Y el día menos pensado,
                        B
Yo me iré hacia el otro lado
                    F#                    B
Solo para estar con vos y escuchar tu voz.


    (PUNTEO DE 1ER GUITARRA)


e)-------------------------------------------------------------------------|
B)--5-5p4-------5-5p4-------5-5p4--------5-5p4---------5-5p4---------5-5p4-|
G)-4------4-4~-4------6-4-6-------6-6~--6-------6-4-4~-------4-4~--4-------|
D)-------------------------------------------------------------------------|
A)-------------------------------------------------------------------------|
E)-------------------------------------------------------------------------|

e)-----7--------------------------------|
B)-7/9---9p7-7~----5p4-5p4-5p4---5hp4~~-|
G)-----------------------------6--------|
D)--------------------------------------|
A)--------------------------------------|
E)--------------------------------------|




B-C#m-E-B

No me olvides nunca, dijo
Un día le encuentra escrito
Tatuado al corazón
Diez rosas en la mano
Sus ojos llenos de llanto
Y de pastillas se llenó.
Era tanto lo perdido
Imposible resistirlo y sus ojos cerro
Y así se despidió...

=======================================================================
            SOLO: B-C#m-E-B (X2)

e)------------------------------------------|
B)---------4-5-6-7--------------------------|
G)-/4~-6b8---------6b8r6p4--6~-6b-6p4---4~--|
D)------------------------------------6-----|
A)------------------------------------------|
E)------------------------------------------|

e)-------7p6p4-------------------------------------------|
B)--7b9~-------7-7b8r7p4-----------4-4------4------------|
G)-----------------------6p4---6b7------6b7----6--4--4~--|
D)-------------------------------------------------------|
A)-------------------------------------------------------|
E)-------------------------------------------------------|

e)--7--9---11---9---12---11-11~~-|
B)-7-7---7----7---7----7---------|
G)-------------------------------|
D)-------------------------------|
A)-------------------------------|
E)-------------------------------|

e)-------------------------------------------------|
B)-12-14-16p14p12---14-16-17p16p14--16-17--19b21~~-|
G)-------------------------------------------------|
D)-------------------------------------------------|
A)-------------------------------------------------|
E)-------------------------------------------------|

e)----------------------------|
B)-19p16----------------------|
G)-------18p16--16h18--16b18~-|
D)----------------------------|
A)----------------------------|
E)----------------------------|

e)-18b19~--18-16-18p16----16----------------------------|
B)---------------------19----19p16---16-----------------|
G)---------------------------------18---18p16---18--16~-|
D)--------------------------------------------18--18----|
A)------------------------------------------------------|
E)------------------------------------------------------|

e)------7--9--11--12---12--14b16r14~~--------|
B)-----7-7--7---7---7------------------------|
G)--/8---------------------------------------|
D)-------------------------------------------|
A)-------------------------------------------|
E)-------------------------------------------|
============================================================================

Y el día menos pensado
Yo me iré hacia otro lado
Solo para estar con vos y escuchar tu voz

B             C#m
No me olvides no
              E
No me olvides no
              B
No me olvides no...(X2)



     (un pequeño puente para el final)
e)-------------------------------|
B)--7p5/4--4---------------------|
G)-------6---6p4h3/1/4~~---------|
D)-------------------------------|
A)-------------------------------|
E)-------------------------------|

 (PIANO)

Estamos llenos de historias
Algunas que no perdonan
Y que pierden la razón.

ESPERO QUE LES SIRVA..
ESTARE SUBIENDO MAS SOLOS DE TEMAS DE ROCK NACIONAL ANTE CUALQUIER CONSULTA
ESTE ES MI CORREO yasuu2795@gmail.com
Versión 3 - No me olvides (Letra y acordes)
INTRO: C#m - A - B - G#

C#m                      A
   Estamos llenos de historias
                   B
Algunas que no perdonan
                   G#
Y que pierden la razón.
C#m                      A
   Al pasar se escucha un grito
                   B
Que viene por el pasillo y grita:
            G#
No te vayas hoy.
C#m                   A
   Y el día menos pensado,
                        B
Yo me iré hacia el otro lado
                    G#                C#m
Solo para estar con vos y escuchar tu voz.

A - B - G#

C#m                      A
   No me olvides nunca, dijo
                      B
Un día le encuentra escrito
              G#
Tatuado al corazón
C#m                  A
   Diez rosas en la mano
                    B
Sus ojos llenos de llanto
                G#
Y de pastillas se llenó.
C#m                  A
    Era tanto lo perdido
                  B
Imposible resistirlo
            G#
y sus ojos cerro
              C#m
Y así se despidió...

A - B - G#


C#m                   A
   Y el día menos pensado,
                        B
Yo me iré hacia el otro lado
                    G#                C#m
Solo para estar con vos y escuchar tu voz.

A - B - G#

C#m           A
No me olvides no
              B
No me olvides no
              G#
No me olvides no...

C#m           A
No me olvides no
              B
No me olvides no
              G#
No me olvides no...

Estamos llenos de historias
Algunas que no perdonan
Y que pierden la razón...

A desde el traste 5 y B desde el traste 7

Lo saque desde el video en vivo en el club Escobar. Cualquier arreglo
va a ser bien recibido. Gracias.
Versión 4 - No me olvides (Letra y acordes)
B                      A
 Estamos llenos de historias
                   E
Algunas que no perdonan
                   B
Y que pierden la razón.
                        A
Al pasar se escucha un grito
                   E
Que viene por el pasillo y grita:
            B
No te vayas hoy.

A                   E
 Y el día menos pensado,
                       B
Yo me iré hacia el otro lado
                     A         E      B
Solo para estar con vos y escuchar tu voz.

(B-A-E-B)

B                     A
No me olvides nunca, dijo
                       E
Un día le encuentra escrito
              B
Tatuado al corazón
                  A
Diez rosas en la mano
                     E
Sus ojos llenos de llanto
                   B
Y de pastillas se llenó.

A                E
Era tanto lo perdido
               B                   A
Imposible resistirlo y sus ojos cerro
              B
Y así se despidió...

A                   E
Y el día menos pensado
                      B
Yo me iré hacia otro lado
                     A           E     B
Solo para estar con vos y escuchar tu voz

B              A
No me olvides no
               E
No me olvides no
               B
No me olvides no...

B                     A
Estamos llenos de historias
                  E
Algunas que no perdonan
                    B
Y que pierden la razón...

El material contenido en esta página es para exclusivo uso privado y con propósito meramente educativo, se prohibe su reproducción y uso con fines comerciales