Qué está bien?

Acordes de la canción 'Qué está bien?' de La Beriso

Versiones de esta canción: Tablatura para guitarra (TAB) - Tablatura para guitarra (TAB)

           D
que esta bieeen
                      G      RIFF 1    [G - A]
y quien me lo puede decir
      A                                   D     RIFF 2    [D]
estoy arto de las ceremonias me quiero divetir
      D
trabajas
                  G
para un futuro mejor
          A                                D         RIFF 2    [D]
despues llegas a viejo y dos mangos es tu jubilacion

G          A          Bm     RIFF 3    [D]
despues de haberlo yo vivido
G          A            D
no quiero que te pase a vooos
G          A            D                    G
taaanto dolor ya no me cabe en este cuerpo mi amoor
           G                      A                        D    RIFF 4    [D]
ya no comprendo que me digan de afuera que se mueren de amoor
        D
por favoor
                 G      RIFF 1    [G - A]
cuidate al regresar
       A                                          D     RIFF 2    [D]
y que nunca te atrape por la calle la horrible soledad
        D
drogas no!!
                         G
y vos quien te crees que sos?
        A                                       D      RIFF 2    [D]
fumar me alivia me aparta me saca este maldito dolorr

G          A          Bm       RIFF 3 [D]
despues de haberlo yo vivido
G          A             D
no quiero que te pase a vooos
G          A            D                     G
taaanto dolor ya no me cabe en este cuerpo mi amoor
           G                      A                        D   RIFF 4
ya no comprendo que me digan de afuera que se mueren de amoor


solillo [ D - G - A - D] x 2

                                aca esta parte va
       D                         arpegiada al final
estudiaaas                       estan tabuladas las notas
                  G
para ser alguien mas
              A                                   D
despues te obligan a juntar cartones por toda la cuidad
        D
drogas no!!
                          G
y vos quien te crees que sos?
           A                                      D
fumar me alivia me aparta me saca este maldito doloorr

G          A          Bm       RIFF 3 [D]
despues de haberlo yo vivido
G          A             D
no quiero que te pase a vooos
G          A            D                     G
taaanto dolor ya no me cabe en este cuerpo mi amoor
           G                      A                        D    RIFF 2    [D]
ya no comprendo que me digan de afuera que se mueren de amoor

G          A            D                     G
taaanto dolor ya no me cabe en este cuerpo mi amoor
           G                      A                        D
ya no comprendo que me digan de afuera que se mueren de amoor


    RIFF 1    [G - A]
    G                           A
e|-----10----------10----------|----12-------------12-----------
B|-8-10b----10-8--10b----10-8--|-10-12b-----12-10--12b----12-8---
G|-----------------------------|--------------------------------
D|-----------------------------|--------------------------------
A|-----------------------------|--------------------------------
E|-----------------------------|--------------------------------

    RIFF 2    [D]
    D
e|---------------------------
B|------------s10------------
G|---------7-7s11------------
D|-----7-9-------------------
A|-7-9-----------------------
E|---------------------------

    RIFF 3    [D]
    D
e|-10-9-7---------------------------------------------------------------5-5
B|--------10-7----------------------------------------------------------8-7
G|---------------9b11b9-7-------7~----7-9b11b9------7-9b11b9--------7---7-7
D|------------------------9-7-9-----9-------------9-------------9-7-7---7-7
A|----------------------------------------------------------------------5-5
E|----------------------------------------------------------------------x-x


    RIFF 4
e|---------------------------
B|---------------------------
G|---------7-----------------
D|-----7-9-------------------
A|-7-9-----------------------
E|---------------------------



parte de ESTUDIASS.. bla bla

   D           G           A           D

e|-2--2---2----3--3---3----0--0---0----2--2---2---
B|-3---3---3---3---3---3---2---2---2---3---3---3--
G|-2----2---2--0----0---0--2----2---2--2----2---2-
D|-0-----------0-----------2-----------0----------
A|-------------2-----------0----------------------
E|-------------3----------------------------------



   D           G           A                 D5

e|-2--2---2----3--3---3----0--0---0-----------------
B|-3---3---3---3---3---3---2---2---2----------------
G|-2----2---2--0----0---0--2----2---2------7-777-7--
D|-0-----------0-----------2---------------7-777-7--
A|-------------2-----------0---------------5-555-5--
E|-------------3------------------------------------

correccion de los riffs
Versión 2 - Qué está bien? (Tablatura para guitarra (TAB))
            D
que esta bieeen
                      G      RIFF 1    [G - A]
y quien me lo puede decir
      A                                   D     RIFF 2    [D]
estoy arto de las ceremonias me quiero divetir
      D
trabajas
                  G
para un futuro mejor
          A                                D
despues llegas a viejo y dos mangos es tu jubilacion

G          A          D     RIFF 3    [D]
despues de haberlo yo vivido
G          A           D-G-D
no quiero que te pase a vooos
G          A            D5             A5        G5
taaanto dolor ya no me cabe en este cuerpo mi amoor
           G                      A                        D
ya no comprendo que me digan de afuera que se mueren de amoor

        D
por favoor
                 G      RIFF 1    [G - A]
cuidate al regresar
       A                                          D     RIFF 2    [D]
y que nunca te atrape por la calle la horrible soledad
        D
drogas no!!
                         G
y vos quien te crees que sos?
        A                                       D
fumar me alivia me aparta me saca este maldito dolorr

G          A          D       RIFF 3 [D]
despues de haberlo yo vivido
G          A           D-G-D
no quiero que te pase a vooos
G          A            D5             A5        G5
taaanto dolor ya no me cabe en este cuerpo mi amoor
           G                      A                        D
ya no comprendo que me digan de afuera que se mueren de amoor


solillo [ D - G - A - D] x 2
                                 aca esta parte va
       D                         arpegiada al final
estudiaaas                       estan tabuladas las notas
                  G
para ser alguien mas
              A                                   D
despues te obligan a juntar cartones por toda la cuidad
        D
drogas no!!
                          G
y vos quien te crees que sos?
           A                                      D
fumar me alivia me aparta me saca este maldito doloorr

G          A          D       RIFF 3 [D]
despues de haberlo yo vivido
G          A           D-G-D
no quiero que te pase a vooos
G          A            D5             A5        G5
taaanto dolor ya no me cabe en este cuerpo mi amoor
           G                      A                        D
ya no comprendo que me digan de afuera que se mueren de amoor

G          A            D5             A5        G5
taaanto dolor ya no me cabe en este cuerpo mi amoor
           G                      A                        D
ya no comprendo que me digan de afuera que se mueren de amoor


    RIFF 1    [G - A]
    G                           A
e|-----10b---------10b--------|----12b------------12b--------
B|--10b--- 10-8--10b----10-8--|-12b-----12-10--12b----12-8---
G|----------------------------|------------------------------
D|----------------------------|------------------------------
A|----------------------------|------------------------------
E|----------------------------|------------------------------

    RIFF 2    [D]
    D
e|---------------------------
B|---------------------------
G|---------5---5-7b-7b-7~----
D|-----5-7---7---------------
A|-5-7-----------------------
E|---------------------------

    RIFF 3    [D]
    D
e|-10-9-7-------------------
B|--------10-9-7------------
G|---------------9-7-9b-7~--
D|--------------------------
A|--------------------------
E|--------------------------


parte de ESTUDIASS.. bla bla

   D           G           A           D

e|-2--2---2----3--3---3----0--0---0----2--2---2---
B|-3---3---3---3---3---3---2---2---2---3---3---3--
G|-2----2---2--0----0---0--2----2---2--2----2---2-
D|-0-----------0-----------2-----------0----------
A|-------------2-----------0----------------------
E|-------------3----------------------------------



   D           G           A                 D5

e|-2--2---2----3--3---3----0--0---0-----------------
B|-3---3---3---3---3---3---2---2---2----------------
G|-2----2---2--0----0---0--2----2---2------7-777-7--
D|-0-----------0-----------2---------------7-777-7--
A|-------------2-----------0---------------5-555-5--
E|-------------3------------------------------------



y nase que onda.. la primera transcripcion de el loco bliyo
espero que les suene bien y sino.. su mama la debe tocar mejor ;)
jaja nos vemos chicos cuidense

blito_cba@hotmail.com

El material contenido en esta página es para exclusivo uso privado y con propósito meramente educativo, se prohibe su reproducción y uso con fines comerciales