Flores

Tabs, letra y acordes de 'Flores' por La Beriso

[INTRO]

Bm-A-G-Bm

e|---7-9-10-9-7-|
B|--------------|
G|-/7-----------|

Bm-A-G-Bm

[VERSO]

Bm
Escucho al viento
   A
soplar cada vez mas
G
y se que la lluvia
   Bm
ya no te mojara

Bm
Cuantas cosas
    A
quisiera preguntar
G
nadie responderia
    Bm
lo que quiero escuchar

[ESTRIBILLO]

G             F#
Y tu ausencia
                 Bm
no la puedo soportar
   A          G
y volveré a ese lugar
     F#            Bm
con flores para dejar

[PUENTE] Bm-A-G-Bm

[VERSO]

Esperando
ver todo terminar
son muchos los recuerdos
que veo pasar

De tu mano
no me quiero soltar
se que cuando me aleje
ya no podré mirar

[ESTRIBILLO]

Esos ojos
ya no me acompañaran
y volveré a ese lugar
con flores para dejar

[SOLO1]

e|-------------------------------------------
B|-------------------------------------------
G|-------------------------------------------
D|-------------------------------------------
A|-------------------------------------------
E|-7-9-10-7-9-10--6-7-9-6-7-9--7-9-10-7-9-10-

e|-------------------------------------------
B|-------------------------------------------
G|-------------------------------------------
D|--------------7/99~-9999-77~-7h9-77-7/55~--
A|-------/7-7/9------------------------------
E|-6-7-9-------------------------------------

e|-------------------------------------|
B|-------------------------------------|
G|-------------------------------------|
D|-5-5/75-5-55/4-4/2-------------------|
A|-------------------7/5-5/4--4/5-4-2~-|
E|-------------------------------------|

[VERSO]

Respirando
angustia y soledad
siento un corte en el alma
que no podré curar

Soportando
la carga de este amor
que me queda guardado
no puedo dartelo

[ESTRIBILLO]

Y tu ausencia
no la puedo soportar
y volveré a ese lugar
con flores para dejar

[SOLO2]

Bm-A-G-Bm x3

[ESTRIBILLO]

Y tu ausencia
no la puedo soportar
y volveré a ese lugar
con flores para dejar

[SOLO3]

Bm-A-G-Bm
Bm-A-G-F#



disculpen pero debo los otros 2 solos...
x cualkier cosa me mandan mail a
lalos_boca20@hotmail.com
Aguante el Rock n' roll y nada mas,
es algo que los chetos no pueden entender!

El material contenido en esta página es para exclusivo uso privado y con propósito meramente educativo, se prohibe su reproducción y uso con fines comerciales