Doscientas Almas

Acordes de la canción 'Doscientas Almas' de La Beriso

Versiones de esta canción: Tablatura para guitarra (TAB) - Letra y acordes

Bue.....tengo una banda y queriamos tocar esta cancion
pero no la encontraba...entonces me la puse a sacar y
quedo esto.....espero q te bien....cualquier cosa avisen...
Santi......


INTRO: (D-G-D-G-D-A-D) x2

D                G
Mirando otra realidad
             D
Desde un mismo suelo
               G
Dejando de festejar
               D
Cuando todos brindemos

A                         G
Hoy falta una copa en la mesa
                        D
Y sobra un alma en el cielo

A                         G
Hoy falta una copa en la mesa
                       D      G-D
Y sobra un alma en el cielo

Tratando de soportar
Este gran infierno
Tragando saliva
Y mirando desde abajo el cielo

Una lágrima hace promesas
Que nunca olvidaremos

Una lágrima hace promesas
Que nunca olvidaremos

G
Vamos nosotros brindemos
            D                      A
Por todos aquellos que pronto vendrán
G
Vamos son doscientas almas
           D                  A
Que están agitando desde otro lugar

riff 1:

   D    G   D   G   D     A   D
E|--------------------------------|
B|-----/12-----/12----------------|
G|-11~-----11~-----11~--11/9--7---|
D|--------------------------------|
A|--------------------------------|
E|--------------------------------|


   D    G   D   G   D     A   D
E|------------------------------------------|
B|-----/12-----/12--------------------------|
G|-11~-----11~-----11~--11/9--7-------------|
D|-------------------------------9/7--------|
A|-----------------------------------9-7-5--|
E|------------------------------------------|



Tratando que una palabra
Cambie tu mirada
Sabiendo que después de esto
Ya no queda nada

Hoy solo quedan sus recuerdos
Y rezar por sus almas

Hoy solo quedan sus recuerdos
Y rezar por sus almas

Vamos nosotros brindemos
Por todos aquellos que pronto vendrán
Vamos son doscientas almas
Que están agitando desde otro lugar

Vamos nosotros brindemos
Por todos aquellos que pronto vendrán
Vamos son doscientas almas
Que están agitando desde otro lugar

solo:

SOLO:

E|-------------------------------------------------
B|---------------------10-10-7--------12-10-8-10-8-
G|---------------------9b------9-7-----------------
D|-9-7-9-9/12-9-12-9-------------------------------
A|-------------------------------------------------
E|-------------------------------------------------

----------------------
----------------------
10/11-10/11-9-7---9-7-
----------------11----
----------------------
----------------------

-----------------------17-------------------17---17
------------12-12/15-17b--17b-17-15-17-15-17b-17b-
---11-11/14----------------------------------------
---------------------------------------------------
---------------------------------------------------
---------------------------------------------------

---------------------
17-15-15----15--15---
------------14b-14b--
---------------------
---------------------
---------------------

---------------------------------------
----------15-----15--------------------
-14-12-14-14b-14b-14b-14--14-12-11-9-9-
---------------------------------------
---------------------------------------
---------------------------------------

----------------------------------
-------------------12-14-14/17-15-
-------------12-14----------------
-------12-14----------------------
-12-14----------------------------
----------------------------------

----------17----17----------------------
-14-15-17b-17b-----17b-17-15-17-15-17/15
----------------------------------------
----------------------------------------
----------------------------------------
----------------------------------------

-19-17/15/17-15/17-17-15-14-15-14
---------------------------------
---------------------------------
---------------------------------
---------------------------------
---------------------------------

-14/12/14-------------------|
---------15-----------------|
----------------------------|
----------------------------|
----------------------------|
----------------------------|


Vamos nosotros brindemos
Por todos aquellos que pronto vendrán
Vamos son doscientas almas
Que están agitando desde otro lugar

Vamos nosotros brindemos
Por todos aquellos que pronto vendrán
Vamos son doscientas almas
Que están agitando desde otro lugar


riff 1:

   D    G   D   G   D     A   D
E|--------------------------------|
B|-----/12-----/12----------------|
G|-11~-----11~-----11~--11/9--7---|
D|--------------------------------|
A|--------------------------------|
E|--------------------------------|


   D    G   D   G   D     A   D
E|------------------------------------------|
B|-----/12-----/12--------------------------|
G|-11~-----11~-----11~--11/9--7-------------|
D|------------------------------------------|
A|------------------------------------------|
E|------------------------------------------|
Versión 2 - Doscientas Almas (Letra y acordes)
INTRO: (D-G-D-G-D-A-D) x2

D                G
Mirando otra realidad
             D
Desde un mismo suelo
               G
Dejando de festejar
               D
Cuando todos brindemos

A                         G
Hoy falta una copa en la mesa
                        D
Y sobra un alma en el cielo

A                         G
Hoy falta una copa en la mesa
                       D      G-D
Y sobra un alma en el cielo

Tratando de soportar
Este gran infierno
Tragando saliva
Y mirando desde abajo el cielo

Una lágrima hace promesas
Que nunca olvidaremos

Una lágrima hace promesas
Que nunca olvidaremos

G
Vamos nosotros brindemos
            D                      A
Por todos aquellos que pronto vendrán
G
Vamos son doscientas almas
           D                  A
Que están agitando desde otro lugar
(D-G-D-G-D-A-D)


Tratando que una palabra
Cambie tu mirada
Sabiendo que después de esto
Ya no queda nada

Hoy solo quedan sus recuerdos
Y rezar por sus almas

Hoy solo quedan sus recuerdos
Y rezar por sus almas

El material contenido en esta página es para exclusivo uso privado y con propósito meramente educativo, se prohibe su reproducción y uso con fines comerciales