Confundido

Acordes de la canción 'Confundido' de La Beriso

Versiones de esta canción: Tablatura para guitarra (TAB) - Letra y acordes - Letra y acordes

Bueno, la transcripción de Fernando está muy bien... así que no voy a
poner nada del tema...

Les dejo el solo del tema, para mí suena bastante bien. Si tienen dudas
o sugerencias, avisen por mail.

SOLO:

e|------------------------------------------------------------------------
B|------------------------------------------------------------------------
G|9b10-10r9-7-9-7~~--9b10-9-7-9-9~~---9~-9-7-6~--7-6---6------------------
D|9b10-10r9----------9b10----------------------------9----7-7~------------
A|------------------------------------------------------------------------
E|------------------------------------------------------------------------

e|-----------------12b14-12-10-12--10----10--b14-12~~~~~------------------
B|-----10-12-10~~---------------------12----------------------------------
G|9/11--------------------------------------------------------------------
D|------------------------------------------------------------------------
A|------------------------------------------------------------------------
E|------------------------------------------------------------------------

e|---17b19r17-15-17-17~~---17b19—15-14-15p14----14------------------------
B|15----------------------------------------h17----15-17------------------
G|------------------------------------------------------------------------
D|------------------------------------------------------------------------
A|------------------------------------------------------------------------
E|------------------------------------------------------------------------

e|---------14-15-17-17b19-17-15-17--15-14-15--14----14--------------------
B|14-15-17---------------------------------------17----17-15-17--15-14-15-
G|------------------------------------------------------------------------
D|------------------------------------------------------------------------
A|------------------------------------------------------------------------
E|------------------------------------------------------------------------

e|------------------------------------------------------------------------
B|--------------------------------------------------10b1210-8-10~~~-------
G|16-14-/12-/11--/16-/14-/12-/11-/9--/7--7-7h9~~~~------------------------
D|------------------------------------------------------------------------
A|------------------------------------------------------------------------
E|------------------------------------------------------------------------

e|-----------------10~~~~~~~~~~-------------------------------------------
B|8-7-8-7-8-7~~~----------------------------------------------------------
G|--------------------------------11-11/9~~--9-9/7~~--2h4p2~~--0-2p0------
D|-------------------------------------------------------------------4~~~-
A|------------------------------------------------------------------------
E|------------------------------------------------------------------------

        Por ese cielo confundido...
e|------------------------------------------------------------------------
B|------------------------------------------------------------------------
G|------------------------------------------------------------------------
D|4p2p0h2-----------------------------------------------------------------
A|------------------------------------------------------------------------
E|------------------------------------------------------------------------

Aguante A VER Q’ SALE!!!!
Versión 2 - Confundido (Letra y acordes)
Intro:(D-G-A)x2

 D          G          A
Por tantas noches desvelado
 D           G               A
por tanta angustia que he derramado
 D       G            A
por esa sensacion de pena
 D          G            A
que ayer corria por mis venas.

 Em               G
Por ese cielo confundido
                   A
que amanecio dandome brillo...

 D        G           A
Por esas cosas de la vida
 D       G            A
Ayer tristeza hoy alegria
 D           G              A
Por tantas copas que he brindado
 D        G           A
y a la vida sigo apostando

 Em               G
Por ese cielo confundido
                   A
que amanecio dandome brillo...
  D        G          A
Vamos que hoy estoy contigo
  D           G       A
vamos que ya no estoy vencido
  D        G          A
vamos que hoy estoy contigo
  D           G       A
vamos que ya no estoy vencido


D           G                A
Por tantas cosas que me han dado
D         G                A
y muchas mas que he descartado
D         G             A
por ese amor que algun dia
D           G              A
me diste y hoy lo llevo encima

Em                   G
Por ese cielo confundido
                   A
que amanecio dandome brillo...
  D        G          A
Vamos que hoy estoy contigo
  D           G       A
vamos que ya no estoy vencido
  D        G          A
vamos que hoy estoy contigo
  D           G       A
vamos que ya no estoy vencido

solo: (D-G-A) x4
Lento: Em-G-A


Em               G
Por ese cielo confundido
                   A
que ananecio dandome brillo... Ooooohhhhhh
  D        G          A
Vamos que hoy estoy contigo
  D           G       A
vamos que ya no estoy vencido
  D        G          A
vamos que hoy estoy contigo
  D           G       A
vamos que ya no estoy vencido

final: (D-G-A) x4 D


Este es un temon tiene todo el rock
creo q esta bien AGUANTE LA BERISO!!!!!!!!!!!
CHAUCHA LUPS 14
Versión 3 - Confundido (Letra y acordes)
Intro: (D-Dsus4-A)x2

 D         Dsus4         A
Por tantas noches desvelado
 D         Dsus4         A
por tanta angustia que he derramado
 D      Dsus4         A
por esa sensacion de pena
 D         Dsus4         A
que ayer corria por mis venas.

 Bm               G
Por ese cielo confundido
                   A
que amanecio dandome brillo...

 D       Dsus4       A
Por esas cosas de la vida
 D       Dsus4      A
Ayer tristeza hoy alegria
 D         Dsus4         A
Por tantas copas que he brindado
 D        Dsus4       A
y a la vida sigo apostando

 Bm               G
Por ese cielo confundido
                   A
que amanecio dandome brillo...
  D                  A
Vamos que hoy estoy contigo
  D                  A
vamos que ya no estoy vencido
  D                  A
vamos que hoy estoy contigo
  D                  A
vamos que ya no estoy vencido

Por tantas cosas que me han dado
y muchas mas que he descartado
por ese amor que algun dia
me diste y hoy lo llevo encima

 Bm               G
Por ese cielo confundido
                   A
que amanecio dandome brillo...
  D                  A
Vamos que hoy estoy contigo
  D                  A
vamos que ya no estoy vencido
  D                  A
vamos que hoy estoy contigo
  D                  A
vamos que ya no estoy vencido

solo: (D-Dsus4-A) x4
     LEnto  Bm-G-A

esta parte es sin notas o solamente marcan cuando cambia nomas
hasta el grito del rolo

 Bm               G
Por ese cielo confundido
                   A
que ananecio dandome brillo... Ohhhahhh
  D                  A
Vamos que hoy estoy contigo
  D                  A
vamos que ya no estoy vencido
  D                  A
vamos que hoy estoy contigo
  D                  A
vamos que ya no estoy vencido

final: (D-Dsus4-A) x4
        estiran el ultimo A y termina en D

Bueno espero que se entienda cualquier duda esta mi mail arriba.
Vamos a copar el marquee el 30!

El material contenido en esta página es para exclusivo uso privado y con propósito meramente educativo, se prohibe su reproducción y uso con fines comerciales