Quiero estar contigo

Tabs, letra y acordes de 'Quiero estar contigo' por Airbag

Versiones disponibles: Tablatura para bajo (bass tab) - Tablatura para guitarra (TAB) - Tablatura para guitarra (TAB) - Letra y acordes - Letra y acordes - Letra y acordes

Esta Cancion se la dedico al Chino ALexis que es mi pana..
para que se la cante a su nueva pelada.. je je--

Afinación Standar E


 Intro y Outtro
G|----------------------------------------------------|
D|----------------------------------------------------|
A|----------------------------------------------------|
E|----0--1--3--4-4-4-4--------------------------------|


Estrofas

      G#                              C#      D#
G|----------------------------------------------------|
D|----------------------------------------------------|
A|------------11-11-10-10-8-8-6-6-4-4-4-4-4-4-6-6-6-6-|
E|----4-4-4-4-----------------------------------------|

PRe coro
      ah ah ah y

            C       C#  G#  C       C#  D#
G|----------------------------------------------------|
D|----------------------------------------------------|
A|----6--4--3-3-3-3-4-4-----3-3-3-3-4-4-6-6-----------|
E|----------------------4-4---------------------------|

Coro
      G#      F       C#      D#
G|----------------------------------------------------|
D|----------------------------------------------------|
A|--------------------4-4-4-4-6-4-3-------------------|
E|----4-4-4-4-1-1-1-1---------------4-----------------|

Buena BAnda Argentina felicitaciones a la tierra de los enanitos
Viva El Ecuador!!!
Versión 2 - Quiero estar contigo (Tablatura para guitarra (TAB))
Intro:

|---------------|     |---------|
|---------------|     |---------|
|---------------|     |---------|
|-------6-6-6-6-| x 3 |-------6-|
|-------6-6-6-6-|     |-------6-|
|-1-2-3-4-4-4-4-|     |-1-2-3-4-|

        G#5
Estoy cansado que me digan lo que tengo que hacer
        C#5                    D#5
estoy cansado que me vengan a retar
        G#5
Ya no comprendo las razones bien porque
           C#5                 D#5
quiero borrarme de este maldito lugar

D#5  C#5  C5
Ah,  ah,  ah

   C5
y cuanto tiempo mas será
   C#5        G#5
no se yo no lo se
   C5
irme lejos hacia el mar
    C#5                 D#5
yo ya no quiero mas volveeer

un dos tres va

G#5 F5 C#5    D#5            G#5 FA5 C#5
So-loooooo yo quiero estar contigooooooo
    D#5        G#5  F5    C#5        D#5  G#5  F5
sentarme a tu lado bajo el sol  y juntos caminaaar
 C#5   D#5
ooooh oooh
G#5 F5 C#5    D#5         G#5 FA5 C#5
solooooooo mirando las estrellaaaaas
   D#5        G#5  F5   C#5         D#5  G#5  F5(agudo) D#5
tomados de la mano y sentir al aire respirar

       G#5
Estoy cansado que me digan lo que tengo que hacer
        C#5                    D#5
estoy cansado que me vengan a retar
        G#5
Ya no comprendo las razones bien porque
           C#5                 D#5
quiero borrarme de este maldito lugar

D#5  C#5  C5
Ah,  ah,  ah

   C5
y cuanto tiempo mas será
   C#5        G#5
no se yo no lo se
   C5
irme lejos hacia el mar
    C#5                 #5
yo ya no quiero mas volveeer

G#5 F5 C#5    D#5            G#5 FA5 C#5
So-loooooo yo quiero estar contigooooooo
    D#5        G#5  F5    C#5        D#5  G#5  F5
sentarme a tu lado bajo el sol  y juntos caminaaar
 C#5   D#5
ooooh oooh
G#5 F5 C#5    D#5         G#5 FA5 C#5
solooooooo mirando las estrellaaaaas
   D#5        G#5  F5   C#5         D#5  G#5  F5(agudo) D#5
tomados de la mano y sentir al aire respirar

solo:

|--11-19-8----10--16-16-15-15-13-----------------|
|----------11--------------------16--14-13----15-|
|------------------------------------------15----|
|------------------------------------------------|
|------------------------------------------------|
|------------------------------------------------|

|--16-16-15-15-13-------------------------------|
|-----------------16-16/18-16-11-11/13-13-------|
|-----------------------------------------15-13-|
|-----------------------------------------------|
|-----------------------------------------------|
|-----------------------------------------------|

|-----------------------16-20-18-16-18-------|
|--------------------13----------------------|
|--13-13-12-13-13/15-------------------------|
|--------------------------------------------|
|--------------------------------------------|
|--------------------------------------------|

   C5
y cuanto tiempo mas será
   C#5        G#5
no se yo no lo se
   C5
irme lejos hacia el mar
    C#5                 #5
yo ya no quiero mas volveeer

G#5 F5 C#5    D#5            G#5 FA5 C#5
So-loooooo yo quiero estar contigooooooo
    D#5        G#5  F5    C#5        D#5  G#5  F5
sentarme a tu lado bajo el sol  y juntos caminaaar
 C#5   D#5
ooooh oooh
G#5 F5 C#5    D#5         G#5 FA5 C#5
solooooooo mirando las estrellaaaaas
   D#5        G#5  F5   C#5         D#5  G#5  F5(agudo) D#5
tomados de la mano y sentir al aire respirar

outro:

|---------------|     |---------|
|---------------|     |---------|
|---------------|     |---------|
|-------6-6-6-6-| x 3 |-------6-|
|-------6-6-6-6-|     |-------6-|
|-1-2-3-4-4-4-4-|     |-1-2-3-4-|


Este tema se lo dedico a todos mis amigos del Normal 6 especialmente
a los de 3ro 3ra.
Versión 3 - Quiero estar contigo (Tablatura para guitarra (TAB))
Hola dejo un viejo clásico de la banda, es más que fácil para tocar,
Y el solo es de los mas fáciles de hacer. Como siempre esta afinado
En Eb como todos los temas de ellos. Cualquier cosa alevoodoo@ovi.com

E|---------------|     |---------|
B|---------------|     |---------|
G|---------------|     |---------|
D|-------2-2-2-2-| x 3 |-------2-|
A|-------0-0-0-0-|     |-------0-|
E|-0-2-3-0-0-0-0-|     |-0-2-3-0-|

        A5
Estoy cansado que me digan lo que tengo que hacer
          D5                    E5
Estoy cansado que me vengan a retar
         A5
Ya no comprendo las razones bien porque
          D5                       E5
Quiero borrarme de este maldito lugar

E5  D5  C#5
Ah,  ah,  ah

   C#5
Y cuanto tiempo más será
   D5        A5
No se yo no lo se
   C#5
Irme lejos hacia el mar
    D5                 E5
Yo ya no quiero más volveeer

(Un dos tres va)

A5 F#5 D5    E5            A5 F#5 D5
So-loooooo yo quiero estar contigooooooo
     E5         A5 F#5     D5         E5   A5  F#5
Sentarme a tu lado bajo el sol  y juntos caminaaar
 D5   E5
ooooh oooh
A5 F#5  D5     E5          A5 F#5 D5
solooooooo mirando las estrellaaaaas
    E5         A5  F#5   D5          E5   A5   E5*
Tomados de la mano y sentir al aire respirar

        A5
Estoy cansado que me digan lo que tengo que hacer
         D5                     E5
Estoy cansado que me vengan a retar
         A5
Ya no comprendo las razones bien porque
            D5                  E5
Quiero borrarme de este maldito lugar

 E5  D5  C#5
Ah,  ah,  ah

   C#5
Y cuanto tiempo más será
    D5         A5
No se yo no lo se
   C#5
Irme lejos hacia el mar
     D5                 A5
Yo ya no quiero más volveeer

A5 F#5  D5     E5             A5 F#5  D5
So-loooooo yo quiero estar contigooooooo
     E5         A5  F#5    D5         E5   A5  F#5
Sentarme a tu lado bajo el sol  y juntos caminaaar
  D5    E5
ooooh oooh
 A5 F#5 D5     E5          A5 F#5  D5
solooooooo mirando las estrellaaaaas
    E5         A5  F#5   D5          E5   A5   E5*
Tomados de la mano y sentir al aire respirar

Solo:(A5 F#5 D5 E5) x4
E--------------------17-17-16-14~----------------------17-17-16-14~--------
B-/17~-15-14----15~-----------------/17~-15-14----15~----------------------
G------------16--------------------------------16--------------------------
D--------------------------------------------------------------------------
A--------------------------------------------------------------------------
E--------------------------------------------------------------------------

E-------------------------------------------------------------19^19-17-19~-
B---17^-17--15-14h15p14----14-------------------------14--17~--------------
G-----------------------16----16-14~-/14-14-13-14-16----------------------
D--------------------------------------------------------------------------
A--------------------------------------------------------------------------
E--------------------------------------------------------------------------


   C#5
Y cuanto tiempo más será
    D5         A5
No se yo no lo se
   C#5
Irme lejos hacia el mar
     D5                 A5
Yo ya no quiero más volveeer

A5 F#5  D5     E5             A5 F#5  D5
So-loooooo yo quiero estar contigooooooo
     E5         A5  F#5    D5         E5   A5  F#5
Sentarme a tu lado bajo el sol  y juntos caminaaar
  D5    E5
ooooh oooh
 A5 F#5 D5     E5          A5 F#5  D5
solooooooo mirando las estrellaaaaas
    E5         A5  F#5   D5          E5   A5   E5*
Tomados de la mano y sentir al aire respirar
outro:
|---------------|     |---------|
|---------------|     |---------|
|---------------|     |---------|
|-------2-2-2-2-| x 3 |-------2-|
|-------0-0-0-0-|     |-------0-|
|-0-2-3-0-0-0-0-|     |-0-2-3-0-|  *es E normal, todos los otros son E(VII)

Referencias:
h: ligado ascendente
p: ligado descendente
^: estirar
^r: estirar y volver
~: vibrato
/: Slide
*: Armónico de púa
‘: tremolo de púa
(): armonico de tapping
Versión 4 - Quiero estar contigo (Letra y acordes)
          A
Estoy cansado que me digan lo que tengo que hacer
          D                      E
estoy cansado que me vengan a retar
           A
Ya no comprendo las razones ni el porque
           D                       E
quiero borrarme de este maldito lugar aaaaa

C#
y cuanto tiempo mas sera
    D           A
no se yo no lo se
C#
irme lejos hacia el mar
    D                   E
yo ya no quiero mas volveeer



stop… cuenta 4 tiempos…


CORO


 A        D        E             A        D
Solooooo ooo yo quiero estar contigooooo ooo
    E          A            D      E          A
sentarme a tu lado bajo el sol  y juntos caminar
 D     E
ooooo ooo
 A        D     E            A       D
solooooo ooo mirando las estrellas aaas
   E           A         D     E          D
tomados de la mano y sentir al aire respirar




          A
Estoy cansado que me digan lo que tengo que hacer
          D                      E
estoy cansado que me vengan a retar
           A
Ya no comprendo las razones ni el porque
           D                       E
quiero borrarme de este maldito lugar aaaaa

C#
y cuanto tiempo mas sera
    D           A
no se yo no lo se
C#
irme lejos hacia el mar
    D                   E
yo ya no quiero mas volver

CORO… X 2

Esta es una version igual a la enviada x bruno
la cual lleva los tonos originales pero el orden
de las estrofas no es el mismo!!!
En la transcripción pasada las estrofas variaban con A E D…
y realmente la variación es A D E….gracias disfrutenla….
Versión 5 - Quiero estar contigo (Letra y acordes)
Bueno gente aca estoy yo otra vez con otra cancion de airbag,
no hay ninguna ke este como la gente, les dejo esta q esta
bastante mejor q las otras, espero que les guste..
ya saben, cualqier cosa me agregan: juanma_eltopo@hotmail.com

AFINACION DE GUITARRA: D#

Intro: E5 F#5 G#5  A5 x4

ESTROFA
          A
Estoy cansado que me digan lo que tengo que hacer
          D                      E
estoy cansado que me vengan a retar
           A
Ya no comprendo las razones ni el porque
           D                       E
quiero borrarme de este maldito lugar aaaaa

PUENTE

C#m
  y cuanto tiempo mas será
D               A
no se yo no lo se
C#m
  irme lejos hacia el mar
D                       E
yo ya no quiero mas volveeer

CORO

A   D  E                         A     D  E
Solooooo ooo yo quiero estar contigooooo ooo
E              A    D       E                 A
sentarme a tu lado bajo el sol  y juntos caminar
D     E
ooooo ooo
A   D     E                  A     D  E
solooooo ooo mirando las estrellas aaas
E              A   D     E          A
tomados de la mano y sentir al aire respirar

ESTROFA

          A
Estoy cansado que me digan lo que tengo que hacer
          D                      E
estoy cansado que me vengan a retar
           A
Ya no comprendo las razones ni el porque
           D                       E
quiero borrarme de este maldito lugar aaaaa

PUENTE

C#m
  y cuanto tiempo mas sera
D               A
no se yo no lo se
C#m
  irme lejos hacia el mar
D                       E
yo ya no quiero mas volver

CORO

A   D  E                         A     D  E
Solooooo ooo yo quiero estar contigooooo ooo
E              A    D       E                 A
sentarme a tu lado bajo el sol  y juntos caminar
D     E
ooooo ooo
A   D     E                  A     D  E
solooooo ooo mirando las estrellas aaas
E              A   D     E          A
tomados de la mano y sentir al aire respirar

SOLO: A  D E X 4 (es decir las notas del coro para que
les parezca mas facil)

PUENTE

C#m
  y cuanto tiempo mas sera
D               A
no se yo no lo se
C#m
  irme lejos hacia el mar
D                       E
yo ya no quiero mas volver

CORO

A   D  E                         A     D  E
Solooooo ooo yo quiero estar contigooooo ooo
E              A    D       E                 A
sentarme a tu lado bajo el sol  y juntos caminar
D     E
ooooo ooo
A   D     E                  A     D  E
solooooo ooo mirando las estrellas aaas
E              A   D     E          A
tomados de la mano y sentir al aire respirar

Vuelve a Intro que seria la Outro y termina =)

Nota: fijense bien donde estan los acordes que estan bien,
asi cambian y usan cada acorde cuando se debe.. Saludos
Versión 6 - Quiero estar contigo (Letra y acordes)
          A
Estoy cansado que me digan lo que tengo que hacer
          E                      D
estoy cansado que me vengan a retar
           A
Ya no comprendo las razones bien porque
           E                       D
quiero borrarme de este maldito lugar
C#
y cuanto tiempo mas sera
    D           A
no se yo no lo se
C#
irme lejos hacia el mar
    D                   E
yo ya no quiero mas volveeer

(un dos tres va)<----guido

 A        D        E             A        D
Solooooo ooo yo quiero estar contigooooo ooo
    E          A            D      E          A
sentarme a tu lado bajo el sol  y juntos caminar
 D     E
ooooo ooo
 A        D     E            A       D
solooooo ooo mirando las estrellas aaas
   E           A         D     E          D
tomados de la mano y sentir al aire respirar

          A
Estoy cansado que me digan lo que tengo que hacer
          E                      D
estoy cansado que me vengan a retar
           A
Ya no comprendo las razones bien porque
           E                       D
quiero borrarme de este maldito lugar
C#
y cuanto tiempo mas sera
    D           A
no se yo no lo se
C#
irme lejos hacia el mar
    D                   E
yo ya no quiero mas volveeer

(un dos tres va)<----guido

 A        D        E             A        D
Solooooo ooo yo quiero estar contigooooo ooo
    E          A            D      E          A
sentarme a tu lado bajo el sol  y juntos caminar
 D     E
ooooo ooo
 A        D     E            A       D
solooooo ooo mirando las estrellas aaas
   E           A         D     E          D
tomados de la mano y sentir al aire respirar

(solo guitarra)

Solooooo ooo yo quiero estar contigooooo ooo
    E          A            D      E          A
sentarme a tu lado bajo el sol  y juntos caminar
 D     E
ooooo ooo
 A       D      E  A      D    E A      D
oooooooo oooooooo oooooooooo oooooooooo
    E         A
al aire respirar

El material contenido en esta página es para exclusivo uso privado y con propósito meramente educativo, se prohibe su reproducción y uso con fines comerciales