Relámpagos

Tabs, letra y acordes de 'Relámpagos' por Airbag

Intro: A5 G5 D5 G5

---------------------------------------------- D#
---------------------------------------------- A#
------------------------------------2--------- F#
--22-2-------2--------22-2-------2------------ D#
--00-0-3--5-----5-----00-0-3--5--------------- G#
---------------------------------------------- D#

A5                   G5
Y como un rayo en el suelo caí
D5                 A5
Y en tanta sangre me costó salir
A5                 G5
Pero nena si algo te puedo enseñar
D5                          A5
No es cuanto das, si no cuanto resistís
A5             G5                D5                     A5
Tu beso quema, mi piel sensible, sos el relámpago que brilla en la noche
A5               G5               D5                    A5
Tus ojos perlas, que miran firme, hermosos como luna llena en la noche

Riff

---------8-10-12-10p----------8-10-12-10p-10s8-------------- D#
-10p-10p--------------10p-10p----------------8p-8s10p---- A#

Un poco esclavo, un poco perdedor, un poco loco un poco sabio mi amor
Pero si algo que te puedo pedir, tus satisfacciones son para mí

Tu beso quema, mi piel sensible, sos el relámpago que brilla en la noche
Tus ojos queman, si miran firme, hermosos como luna llena en la noche

Sos el relámpago que brilla en la noche, uhh
Sos mi satisfacción

G5 A5 x 4

Solo: A5 G5 D5

Te quiero nena, puedo sentirte, sos el relámpago que brilla en la noche
Tus ojos perlas, que miran firme, sos el relámpago que brilla esta noche

Sos el relámpago que brilla esta noche

Sos el relámpago que brilla en la noche

El material contenido en esta página es para exclusivo uso privado y con propósito meramente educativo, se prohibe su reproducción y uso con fines comerciales