Esta Noche

Tabs, letra y acordes de 'Esta Noche' por Airbag

Versiones disponibles: Letra y acordes - Tablatura para guitarra (TAB) - Letra y acordes - Tablatura para guitarra (TAB)

Como es mi primer tema que saque al oído no se como les sonara a ustedes
Comienza asi

INTRO:

(D# A# Cm Gm G# D# Fm A#)

D#            A#
no quiero saber de ti
Cm             Gm
ya es tarde para mentir
G#                    D#
Hoy nuestro amor fracaso

              Fm                    A#
yo no pretendí que llegue a sufrir
        D#                  A#
sabes bien que yo en verdad te ame
Cm           Gm             G#                D#
pero nunca vi caer la flor que se marchito
                    Fm              A#
y el sueño que un día soñamos lo dos

CORO
       G#                  D#
esta noche soñé con tu amor
       A#               Cm
y no pude evitar sonreír
      G#                   D#
el recuerdo guardado quedo
               Fm              A#
tan fuerte en ser y en mi corazón
        G#                      D#
y aunque el tiempo no pudo sanar
      A#                Cm
estoy agonizando por ti
         G#                D#
ya no quedan palabras de mas
          Fm                A#
no queda valor para que te siga amando

ACOMPAÑAMIENTO (D# A# Cm Gm G# D# Fm A#)

D#           A#          Cm    Gm
Se que moriré…. Por tu amor
G#                          D#
Antes que entiendas que fuiste
          Fm             A#
Lo mas dulce, lo mas triste
        D#               A#
sabes bien que yo en verdad te ame

Cm           Gm             G#                D#
pero nunca vi caer, la flor que se marchito
                      Fm                A#
y el sueño que un día soñamos lo dos

CORO

ACOMPAÑAMIENTO AL SOLO   (G# D# A# Cm G#  D#  Fm  A#)

       G#                  D#
esta noche soñé con tu amor
       A#               Cm
y no pude evitar sonreír
      G#                   D#
el recuerdo guardado quedo
               Fm              A#
tan fuerte en ser y en mi corazón
        G#                      D#
y aunque el tiempo no pudo sanar
      A#                Cm
estoy agonizando por ti
         G#                D#
ya no quedan palabras de mas
          Fm                A#
no queda valor para que te siga amando

G# D# A# Cm
       G#                 D#
el recuerdo guardado quedo
               Fm              A#
tan fuerte en ser y en mi corazón

G# D# A# Cm
G# D# Fm A#
Versión 2 - Esta Noche (Tablatura para guitarra (TAB))
Corregí la intro ya que la anterior no me pareció
muy correcta y esta suena mucho mejor

                          TROPICALIFE.
INTRO

e|-----------------------------------------------------
B|-----------------------------------------------------
G|-10/12--8-10/12-10-8-7--7/8-----7/8-7----------------
D|-------8---------------------10------8/10-8--8/10-10-
A|----------------------------10-----------------------
E|-----------------------------------------------------

e|-------------------------------------------|
B|-------------------------------------------|
G|-8-8/12-12-10/12/10-8-8/10---8-8/12-10-----|
D|--------------------------10---------------|
A|-------------------------------------------|
E|-------------------------------------------|


D#           A#
No quiero saber de ti
Cm            Gm
Ya es tarde para mentir
G#                 D#                 Fm
Hoy nuestro amor fracaso yo no pretendí
                A#
Que llegue a su fin

      D#                 A#
Sabes bien que yo en verdad te ame  B|-6b(7)-4~
Cm         Gm
Pero nunca vi caer
  G#                D#
La flor que se marchito
                Fm              A#
El sueño que un día soñamos los dos



G#                      D#
Esta noche soñé con tu amor
     A#              Cm
Y no pude evitar sonreír
    G#                D#                      Fm
El recuerdo guardado quedo tan fuerte en mi ser
             A#
Y en mi corazón


            G#5                   D#5        A#5          C5
Y aunque el tiempo lo pueda sanar estoy agonizando por ti
          G#5             D#5
Ya no quedan palabras de más
     F5                      A#5
No queda valor para que te siga amando

REPITE INTRO

Dsp mismos acordes

Sé que moriré  por tu amor
Antes que entiendas que fuiste lo mas dulce
Lo más triste.
Sabes bien que yo en verdad
Esta noche soñé con tu amor
Aunque el tiempo lo pueda sanar


SOLO

e|---------------------------------------------------------------------
B|11b(13)-11b(13)-9/11/9/11~-/11-9-8-6-8-6-4-6-4-6-8-6-4-6-4-6-7-6-4-6-4~
G|---------------------------------------------------------------------
D|---------------------------------------------------------------------
A|---------------------------------------------------------------------
E|---------------------------------------------------------------------

e|11b(13)-11~-13-11-9-11-13*---13-11-9-11-12-13b(14)-14-15b(16)-13b(14)-
B|----------------------------------------------------------------------
G|----------------------------------------------------------------------
D|----------------------------------------------------------------------
A|----------------------------------------------------------------------
E|----------------------------------------------------------------------


G#5 - D#5 - A#5 - C5
G#5 - D#5 - F5 - A#5

Uoo.. esta noche soñe con tu amor
Estribillo

 *armonico de pulgar
Versión 3 - Esta Noche (Letra y acordes)
aqui esta la original
aver si les gusta xD sobrez ps alrra ... y no sean tan critikonez!
es la primera vez k suvo algo aki xD asi que tzz ya saben!!! r_r

y saludos para mi Rozzy ... el am0re de mi vida que piensa que no me dolio
pero por dentrow nome la puedo acabar (U) xD!!!

Amonowz!!!!!

(A)

D           A
No quiero saber de ti
Bm            F#m
Ya es tarde para mentir
G                 D                 Em
Hoy nuestro amor fracaso yo no pretendí
                A
Que llegue a su fin

D                       A
Sabes bien que yo en verdad te ame
Bm         F#m
Pero nunca vi caer
  G                D
La flor que se marchito
                Em              A
El sueño que un día soñamos los dos

(B)

G                      D
Esta noche soñé con tu amor
     A              Bm
Y no pude evitar sonreír
    G                D                      Em
El recuerdo guardado quedo tan fuerte en mi ser
             A
Y en mi corazón

(B)

Y aunque el tiempo lo pueda sanar estoy agonizando por ti
Ya no quedan palabras de más
No queda valor para que te siga amando

(A)

Sé que moriré  por tu amor
Antes que entiendas que fuiste lo mas dulce…
Lo más triste.

Sabes bien que yo en verdad…
Esta noche soñé con tu amor…
Aunque el tiempo lo pueda sanar…


sela lavan dudz =D
Versión 4 - Esta Noche (Tablatura para guitarra (TAB))
La intro anterior no esta muy completa,
en esta están echo algunos arreglos para que suene completa y
lo mas parecida posible.
Un abrazo che, Tiago.

INTRO:1ra parte

e|-------------------------------------------------------------|
B|-------------------------------------------------------------|
G|-10/12--8-10/12-10-8-7----7/8-----7/8-7--5--3--3/5------3/5/3|
D|-------8----------------------10--------------------6--------|
A|-----------------------------10--------------------6---------|
E|-------------------------------------------------------------|

ATENCIÓN: al terminar la parte de arriba variar el terminocon el comienzo
de la otra parte(tratar de darle un toque diferente)
Ejemplo: Si la 1ra parte terminaste con un slide, empezar 2da martillando

2da parte
e|----------------------------|
B|----------------------------|
G|-10/12/10--8/10--8-12/10-8--|
D|--------------------10------|
A|----------------------------|
E|----------------------------|


D#           A#
No quiero saber de ti
Cm            Gm
Ya es tarde para mentir
G#                 D#                 Fm
Hoy nuestro amor fracaso yo no pretendí
                A#
Que llegue a su fin

      D#                 A#
Sabes bien que yo en verdad te ame
Cm         Gm
Pero nunca vi caer
  G#                D#
La flor que se marchito
                Fm              A#
El sueño que un día soñamos los dos



G#                      D#
Esta noche soñé con tu amor
     A#              Cm
Y no pude evitar sonreír
    G#                D#                      Fm
El recuerdo guardado quedo tan fuerte en mi ser
             A#
Y en mi corazón


            G#5                   D#5        A#5          C5
Y aunque el tiempo lo pueda sanar estoy agonizando por ti
          G#5             D#5
Ya no quedan palabras de más
     F5                      A#5
No queda valor para que te siga amando

REPITE INTRO

D#5         A#5          C5   G5
Sé que moriré  por tu amooor
Antes que entiendas que fuiste lo mas dulce
Lo más triste.

 D#5                 A#5
Sabes bien que yo en verdad te ame
C5         G5
Pero nunca vi caer
  G#5               D5
La flor que se marchito
                F5              A#5
El sueño que un día soñamos los dos

G#                      D#
Esta noche soñé con tu amor
     A#              Cm
Y no pude evitar sonreír
    G#                D#                      Fm
El recuerdo guardado quedo tan fuerte en mi ser
             A#
Y en mi corazón


            G#5                   D#5        A#5          C5
Y aunque el tiempo lo pueda sanar estoy agonizando por ti
          G#5             D#5
Ya no quedan palabras de más
     F5                      A#5
No queda valor para que te siga amando


SOLO

e|---------------------------------------------------------------------
B|11b(13)-11b(13)-9/11/9/11~-/11-9-8-6-8-6-4-6-4-6-8-6-4-6-4-6-7-6-4-6-4~
G|---------------------------------------------------------------------
D|---------------------------------------------------------------------
A|---------------------------------------------------------------------
E|---------------------------------------------------------------------

e|11b(13)-11~-13-11-9-11-13*---13-11-9-11-12-13b(14)-14-15b(16)-13b(14)-
B|----------------------------------------------------------------------
G|----------------------------------------------------------------------
D|----------------------------------------------------------------------
A|----------------------------------------------------------------------
E|----------------------------------------------------------------------


G#5 - D#5 - A#5 - C5
G#5 - D#5 - F5 - A#5
CORO: Esta noche soñe con tu amor...

 CONSEJO: si lo tocan acusticamente olviden las quintas y toquen toda la
canción con triadas, lo probé y queda muy copado, saludos desde Chaco.

El material contenido en esta página es para exclusivo uso privado y con propósito meramente educativo, se prohibe su reproducción y uso con fines comerciales