Como perros como hermanos

Tabs, letra y acordes de 'Como perros como hermanos' por Tk

Versiones disponibles: Tablatura para guitarra (TAB) - Tablatura para guitarra (TAB) - Versión 3

Aca les dejo esta rola de esta otra banda del rock bicolor
la rola está brava y no es tan dificil si le das bien el 
ritmo;)está completa.

Nota; los acordes q tiene un numero al cosado, por ej.
                                                 E9>5
significa q se debe de tocar en es # de traste '>'

Intro:

 --------------------------------------------------------
 --------------------------------------------------------
 --------------------------------------------------------
 ----------------5-5---5.---5---7-7-5-7.-5-7-5---------5-
 -7-7-5-7.-5-7-5-----7----7---7----------------7-7-5-7---
 --------------------------------------------------------
 
 Como conocidos nos llevamos tiempo atrás cuando no hablamos
      E                                G 
 años antes como perros años hoy como hermanos 
       A                      E
 ayer ladramos hoy tal vez conversamos fuimos perros oh oh
 E                      G                      A
 fuimos vanos con el tiempo encima tuyo y el orgullo 
         E            E                         G
 debil concluyo, que el hermano es tu sangre 
                            A
 y tu sangre es tu vida
       E
 
 D - D - D13 - D - A - A - A13 - A

 Fuimos perros fuimos vanos, somos sangre somos hermanos
  A                       *E7       D               A
 Fuimos perros fuimos vanos, somos sangre somos hermanos
  A                       *E7       D               A  
 
 --------------------------------------------------------
 --------------------------------------------------------
 --------------------------------------------------------
 ----------------5-5---5.---5---7-7-5-7.-5-7-5---------5-
 -7-7-5-7.-5-7-5-----7----7---7----------------7-7-5-7---
 --------------------------------------------------------

 y esa vida es algo indispensable como la luz del viejo sol 
  E5                                       E9>5
 que acepta que somos sangre que somos hermanos
                      E9>7                E5
 nuestros padres son humanos y como tales pasarán
           E5                        E9>5
 queda mucho para el camino y ya es hora de tejer 
        E9>7                         E5
 nuestro destino. El apoyo debe surgir el amor para crecer
                       E5                   E9>5
 debe sufrir, debemos lograr juntos vivir pero tampoco
                E9>7
 convivir.
  E5
 
 D - D - D13 - D - A - A - A13 - A

 Fuimos perros fuimos vanos, somos sangre somos hermanos
  A                       *E7       D               A
 Fuimos perros fuimos vanos, somos sangre somos hermanos (x2)
  A                       *E7       D               A

 Punteo;)

 -7-5--------12-11-10--------------12---------------------
 -----8.-8-8--------------------12----12-10-12-10---------
 ------------------------9-12-9-------------------12-9-12-
 ---------------------12----------------------------------
 ---------------------------------------------------------
 ---------------------------------------------------------

 -10-7-------------------------
 ------10-8---------------10-8-
 -----------7-8-9-----7-9------
 -----------------7-9----------
 ------------------------------
 ------------------------------

 B>7 - C#>7 - F>5 - B>7

 Siento que empieza ya el recorrido conla buena compañia
  B>7                                      C#>7
 que nos hace entender del hermano un necesario sentimiento
          F>5                             G6
 y no tan solo un ilusorio o mediocre parentesco
                      G          A         E
 y pensar que todo vivió de la desinhibida conversacion
       E                        G         
 que nos regaló la rabia guardada en el silencio 
         A                                E
 de nuestra relación.

 Eso es todo, aca les dejo algunos acordes<;)

 D13= (3) A13= (0) *E7= (4) E5= (x) E9= (x) C#= (1) G6= (3) 
      (3)      (3)      (5)     (x)     (5)     (2)     (5)  
      (2)      (2)      (4)     (3)     (4)     (1)     (4)
      (0)      (2)      (0)     (3)     (2)     (3)     (5)
      (0)      (0)      (x)     (1)     (x)     (4)     (0) 
      (x)      (0)      (x)     (x)     (x)     (1)     (0)

 cualquier cosa..a mi correo.
Versión 2 - Como perros como hermanos (Tablatura para guitarra (TAB))
Como perros, como hermanos.
Album:  Trece
Artista :TK
Hecho por Jorge Chino Funky bass Revilla Tenorio.

Comentarios a mi mail ok??? redchino@hotmail.com

INTRO:
Son solo las notas ya que el ritmo es diferente con 2 variantes pero son las 
notas tu solo dale el tiempo correcto.

e|-----------------------------------------------------------------------|
B|-----------------------------------------------------------------------|
G|-------------------------------------------------------------^---------|
D|-------------------5-5-2-5--2-5-2--7-7-5-7---5-7-5-----------5---------|
A|---7-7-5-7--5-7-5------------------------------------7-7-5-7-----------|
E|-----------------------------------------------------------------------|


FINAL:
D|-----------^-----|
A|-----7-7-5-7-----|
E|-----------------|

De ahi las notas son E G A E
pero  tocalas asi tambien con un buen rasgueo:

e|---------------------------|
B|------ -8--X---10-X--------|
G|--9--X--7--X---9--X---9-X--|
D|--9--X--5--X---7--X---9-X--|
A|--7--X----------------7-X--|
E|---------------------------|
    E     G      A      E


De ahi en la parte del 'huuuuuuuu Siento que empieza ya el recorrido....'
toca las mismas notas pero en su forma normal de Em G A Em
Versión 3 - Como perros como hermanos
esta cancion es un poco dificil puesto que hay que
llevar bien  el ritmo B es bombo P platillos CH charles
T los tontones dercho e izquierdo ToD TOI tonton 
derecho e izquierdo

comienza solo de guitarra se le da toque suaves a los
platillos

de ahi en el mismo solo charles con bombo y tarola
asi:

CH CH CH CH....... VARIAS VECES
   B     B
   T     T

SIEMPRE NOS LLEVAMOS TIEMPO ATRAS CUANDO NO HABALMSO
AÑOS ANTES COMO PERROS AÑOS HOY COMO HEMRNAOS
AYER LADRAMOS TALVEZ HOY HABLAMOS

FUIMOS PERROS FUIMOS HEMRNAOS
CON EL TIEMPO ENCIMA TUYO
Y EL TIEMPO DE INCONCLUYO 
EL HEMRNO ES TU SANGRE Y LA SANGRE ES TU VIDA

FUIMSO PERROS FUIMOS HERMANOS SOMOS SANGRE SOMOS 
HERMANOS(BIS)

DE AHI SIGUE LA CANCION CON EL MISMO ACOMPAÑAMIENTO
SIEMPRE DE VEZ EN CUNDO PUDEN PONERLE UN PLATILLO 
PERO NO ABUSEN PORQUE LA CANCION ES MEDIO ACUSTICA
BIEN SUAVE CON UN POCO DE ROCK

DE AHI CASI AL FIANL COMO POR EL SEGUNDO 50 TODOS SE CALLAN 
Y SE EMPIEZA SUAVE AHI SE ACOMPAÑA CON PLATILLO SUAVE 
PERO SUAVES UNOS TOQUES BIEN SUAVES ESO ES TODO DISFRUTENLA

El material contenido en esta página es para exclusivo uso privado y con propósito meramente educativo, se prohibe su reproducción y uso con fines comerciales