Aquellos que nunca quisieron

Tabs, letra y acordes de 'Aquellos que nunca quisieron' por Tk

Versiones disponibles: Tablatura para guitarra (TAB) - Tablatura para guitarra (TAB) - Letra y acordes - Letra y acordes - Versión 5

Esta es la version completa de esta canción. El solo es
casi perfecto, algunos efectos pueden ser añadidos. 

Acordes:
         C5 (x355xx)   F5 (133xxx)
         G5 (355xxx)   D5 (x577xx)
         A5 (577xxx)   A# (x133xx)


C5         G5          
No esperes que el tiempo 
A5        F5
se diluya como el agua del mar
C5          G5        A5
no escuches el llanto de aquellos 
    F5                C5     G5
que nunca pudieron lograr

C5               G5         
La otra noche no pude dormir
A5             F5               
desperte camine y no podia pensar
C5           G5   
me sentia atrapado 
A5             F5
por el clásico cántico 
C5          G5 
que venia y me decia

C5          G5       
no lo hagas te digo 
A5         F5            
es una locura ir mas alla
C5        G5 
no faltes estudia 
A5        F5   
asegurate antes de que 
     G5        C5   G5
todo salga muy mal

Coro:

F5             A5             
Pronto todo sera mejor 
     D5              A#
me decía mientras dormía  (no vuelvas allá)
F5           A5             
todos esos anhelos 
       D5           A#
no son únicamente sueños (no dejes atrás)
F5          A5           
no dejes atrás 
       D5          A#
el placer de lo ya hecho (y recordarás)
F5     C5      F5    G5
esos buenos momentos

Solo (1:18)

e------------------------------------------12b-12p10-----
G-------------------------------10h12-10-8-----------10--
B--------------------------------------------------------
D---------10-12-12/14-12-10-10---------------------------
A---10h12------------------------------------------------
E--------------------------------------------------------

e---13b-13-13-13-13-13--13-12-10-------------------------
G---------------------------------13-(10)-13-10h13p10----
B--------------------------------------------------------
D--------------------------------------------------------
A--------------------------------------------------------
E--------------------------------------------------------

e-------------------15/17-15/13-15p13--------------------
G---13-13/15-13-10--------------------15-13-15p13-13-13--
B--------------------------------------------------------
D--------------------------------------------------------
A--------------------------------------------------------
E--------------------------------------------------------

e--------------------------------------------------------
G--------------------------------------------------------
B-------------------------------------12h14-14-14-14-12--
D---12h14-12-10-12-10-10/14-14-12-10---------------------
A--------------------------------------------------------
E--------------------------------------------------------

e--------------------------------------------------------
G--------------------------------------------------------
B--------------------------------------------------------
D---14-12-12h14-12-10-----------------10-12-14-12-14-12--
A---------------------10--------10-12--------------------
E-------------------------10-12--------------------------

e--------------------------------------------------------
G--------------------------------------------------------
B------10----10----10-10---10----------10----------------
D---14----14----14------------14-12-10----14-12-12-14----
A--------------------------------------------------------
E--------------------------------------------------------

e---------------------------------------------------------
G---------------------------------------------------------
B--10h12-10----10-14----------------10-12-12/14-10/12-10v-
D-----------12-------12-10-10-10h12-----------------------
A---------------------------------------------------------
E---------------------------------------------------------
 
F5             A5             
Pronto todo sera mejor 
     D5              A#
me decía mientras dormía  (no vuelvas allá)
F5           A5             
todos esos anhelos 
       D5           A#
no son únicamente sueños (no dejes atrás)
F5          A5           
no dejes atrás 
       D5          A#
el placer de lo ya hecho (y recordarás)
F5     C5      F5    G5
esos buenos momentos

C5      G5
uooohhh uooohhh
A5      F5
uooohhh uooohhh

Piano (2:43)

e-----------------------5-5-------------------------------------------
G------5----------------6-6-5------------5---------------5h6-6-5------
B--5-7---4-4-4-5-5/7-5--------7-5----5-7---4-4-4-5-5/7-5---------7-5--
D---------------------------------------------------------------------
A---------------------------------------------------------------------
E---------------------------------------------------------------------

C5         G5          
No esperes que el tiempo 
A5        F5
se diluya como el agua del mar
C5          G5        A5
no escuches el llanto de aquellos 
    F5                C5   G5   C5
que nunca pudieron lograr


**********************************************************
* TE AMO CAROLINA (28/12/03) This love is neverending... *
**********************************************************
Versión 2 - Aquellos que nunca quisieron (Tablatura para guitarra (TAB))
Tk
Aquellos que nunca quisieron

Hola gente acá les mando el solo, ya que nadie quiso sacarlo.

Los acordes los sacan de las otras publicaciones.

Solo:

e----------------------------------------------------------------------
B--------------------12-10----17b-15----18-18-18-18-18---18-18-17-15---
G-----------9-------------12--------14------------------------------17-
D------10h12-12-10-----------------------------------------------------
A-10h12----------------------------------------------------------------
E----------------------------------------------------------------------

e-----------------------------------------------------------
B---------------------17--------20h22-22/17-17p15--17p15----
G---17-17--------17h19--19-17--------------------17-----17--
D-19--------17h19-------------------------------------------
A-----------------------------------------------------------
E-----------------------------------------------------------

e------------------------------------------------------------------------
B------------------------------------------------------------------------
G----------------------14------14---14-14-14-14-12-----------------------
D-14b-12p10-12p10-12/14---14p12-------------------14-12-10--10-10--------
A----------------------------------------------------------------12-10---
E---------------------------------------------------------------------12-

e----------------------------------------------------------------------------
B----------------------------------------------------------------------------
G-------------------9--9-9--9---9-10-10-9-10-10-9-10-10---10-9-------10-9----
D--------------10-12-12---12----------------------------------12-10-------12-
A---------10-12--------------------------------------------------------------
E-12-10-12-------------------------------------------------------------------

e-------------------------------------------------
B-------------------------------------------------
G-9-10-12-10-9-10-9---------------------9---------
D------------------12-10-10--------10h12-12-10----
A-----------------------------10h12---------------
E-------------------------------------------------


         !!!! Y RECUERDEN APOYEN EL ROCK NACIONAL !!!!

 Cualquier sugerencia, correción o pedido, escríbanme a rockinyourhead@hotmail.com
Versión 3 - Aquellos que nunca quisieron (Letra y acordes)
Esta es la versión completa de Aquellos que nunca quisieron
revise la otra y le falta bastante

C           G          Am
No esperes que el tiempo 
            F               C
se diluya como el agua del mar
          G          Am
no escuches el llanto de aquellos 
      F                C   G
que nunca pudieron lograr

C                 G         Am
La otra noche no pude dormir
             F               C
desperte camine y no podia pensar
                G  Am    
me sentia atrapado por el
          F           C           G 
clásico cántico que venia y me decia
C          G       Am
no lo hagas te digo 
          F            C
es una locura ir mas alla
       G         Am
no faltes estudia 
            F
asegurate antes de que 
       G          C  G
todo salga muy mal 

F             A             Dm               A#
Pronto todo sera mejor me decia mientras dormia  (no vuelvas alla)
F            A             Dm             A#
todos esos anhelos no son unicamente sueños (no dejes atras)
F          A           Dm             A#
no dejes atras el placer de lo ya hecho (recordaras)
F       C       F    G
esos buenos momentos

Punteo: (C G Am F ) 4 VECES C G Am F G C 
 
F             A             Dm               A#
Pronto todo sera mejor me decia mientras dormia  (no vuelvas alla)
F            A             Dm             A#
todos esos anhelos no son unicamente sueños (no dejes atras)
F          A           Dm             A#
no dejes atras el placer de lo ya hecho (recordaras)
F       C       F    G
esos buenos momentos

C    G  Am    F
Ohhhh uohhhhhhh
C    G  Am    F
ohhhh uohhhhhhh

C           G          Am
No esperes que el tiempo 
            F               C
se diluya como el agua del mar
          G          Am
no escuches el llanto de aquellos 
      F                C   
que nunca pudieron lograr


Teclado: G Am F C G Am F 

C           G          Am
No esperes que el tiempo 
            F               C
se diluya como el agua del mar
          G          Am
no escuches el llanto de aquellos 
      F                C   G  C
que nunca pudieron lograr
Versión 4 - Aquellos que nunca quisieron (Letra y acordes)
ESTA ES UNA BUENA CANCIÓN DE TK, CUALQUIER COMENTARIO O 
CORRECCIÓN ENVIARLA PORFAVOR A MI CORREO…… ¡QUE VIVA EL ROCK 
PERUANO!

NO esperes que el tiempo se diluya como el agua del mar
DO          SOL          LAm                         FA
NO escuches el llanto de aquellos que nunca pudieron lograr
DO          SOL          LAm                         FA      SOL

La otra noche no pude dormir, Desperté camine y no podía pensar...
DO          SOL          LAm                         FA
me sentía atrapado por el clásico cántico que venia y me decía...
DO          SOL          LAm                         FA       SOL  DO
NO lo hagas te digo es una locura ir mas haya...
DO          SOL          LAm               FA
no faltes estudia asegurate antes de que todo salga muy mal...
DO          SOL          LAm                         FA       SOL  DO SOL

Coro:
-----
Pronto todo será mejor me decía mientras dormía
FA         LA           REm                LA#
Todos esos anhelos no son únicamente sueños
FA         LA           REm                LA#
NO dejes atrás el placer de lo que has hecho
FA         LA           REm                LA#
De esos buenos momentos
FA       DO           FA....SOL

DO SOL LAm FA      (X5)

Pronto todo será mejor me decía mientras dormía
FA         LA           REm                LA#
Todos esos anhelos no son únicamente sueños
FA         LA           REm                LA#
NO dejes atrás el placer de lo que has hecho
FA         LA           REm                LA#
De esos buenos momentos
FA       DO           FA....SOL

OH OH OH…………
DO   SOL   LAm    FA (X2)

NO esperes que el tiempo se diluya como el agua del mar
DO          SOL          LAm                         FA
NO escuches el llanto de aquellos que nunca pudieron lograr
DO          SOL          LAm                         FA      SOL

NO esperes que el tiempo se diluya como el agua del mar
DO          SOL          LAm                         FA
NO escuches el llanto de aquellos que nunca pudieron lograr
DO          SOL          LAm                         FA      SOL


SALUDOS A TODOS………
Versión 5 - Aquellos que nunca quisieron
ya esta rola es bien simple iremos asi B sera el bombo
ch sera el charles N sera el napoleon To seran los
tontones asi tenemos To D que es el tonton derecho y 
To I que es el izquierdo y por ultimo P que son los
platillos
comienza asi :

intro:
T T N T N T N T N

P         P             P              P            P 
NO ESPERES QUE EL TIEMPO SE DILUYA COMO EL AGUA DE MAR
P            P                P
NO ESCUCHES EL LLANTO DE AQUELLOS QUE NUNCA PUDIERON LOGRAR

T T T T T T T T TOD TOI

DE AHI BIEN UN ACOMPAÑAMIENTO QUE ES CON EL CHARLES EN
TODO MOEMENTO SIEMOPRE EL CAHRLES CON TOQUE RAPIDOS Y 
CADATRES GOLPES LA TAROLA CON EL BOMBO 

LA OTRA NOCHE NO PUDE DORMI ME LEVANTE CAMINE Y NO 
PODIA PENSAR ME SENTIA ATRAPADO........
ASI TODA LA CANCION INCLUSO EL SOLO DE GUITARRA
EL ACOMPAÑMIENTO CON CHARLES PUEDE IR DE VEZ EN CUANDO
ACOMPAÑADO CON UN GOLPE DE PALTILLO BUENO ESO ES TODO
ESPERO QUE LES SIRVA DE MUCHO CONMIGO HASTA LA PROXIMA 
VEZ Y ARRIBA TK EL MEJOR GRUPO DE ROCK DE PERÚ.

El material contenido en esta página es para exclusivo uso privado y con propósito meramente educativo, se prohibe su reproducción y uso con fines comerciales