La única voz

Tabs, letra y acordes de 'La única voz' por No Te Va Gustar

Versiones disponibles: Tablatura para guitarra (TAB) - Letra y acordes - Letra y acordes - Tablatura para bajo (bass tab)

bueno...aca va la Intro

e|-----------------------------------------------------------------------
b|-------------------------------------5---------------------------------
g|-----------------------------------------------------------------------
D|----(-3h5-----------5-5-4-3)-----3/5--------(-3h5----------55-4-3)-----
A|----(5---3-55-----5--------)----------------(5---3-55-----5------)-----
E|-----------------------------------------------------------------------
(en las partes entre paréntesis hay qe mutear las cuerdas)

e|--------5---5--||
b|---------------||
g|----3/5---5----||
D|---------------||
A|---------------||
E|---------------||

--------------------------------------------------------------------------


Y aca va el solo...ahh y no le puse los tiempos...asiqe escuchenla bien


|-------------------------------------------------------------------------
|-------------------------------------------------------------------------
|-----------5--------------------------3------------------3---------------
|--5^-5^--3-----5^po3h5---5-------5------2-3-3/5--5-5-5-5-----------------
|--5^-5^--------------------3-4-3---------------------------4/6-4-4-4-3—3h
|-------------------------------------------------------------------------

-------------------------------------------------------------------
-------------------------------------------------------------------
----------4-----------------------------------------------------7--
-----5-3-----3-5^-------5^----------5^po3h5----7---7---------------
4po3---------------------------------------------6---6h8---8po6----
-------------------6--------6--------------------------------------

|-------------------------------------------------------------------------
|-------------------------------------------------------------------------
|-------------------------------------------------------------------------
|-/11---/12---/14---------/11---/12---/14---------------------------------
|-------------------------------------------------------------------------
|----10----12----14----------10----12----14---------15--------------------
                                                Y no me olvido de tus...



Aguante no te va gustar, la vela y 11 tiros locoooo

salute! cuidensee y espero qe les sirva =)
Versión 2 - La única voz (Letra y acordes)

Gm                                  Cm
Algunos siguen dudando si existe el amor
      F                          Bb
Y se siguen preguntando a donde llega la razón
      Gm                              Cm          D                        Gm
Pero yo no me olvido de todo lo que me diste te lo digo con una mano en el corazón

Gm                              Cm
Que no es fácil poder hacer, el bien sin mirar a quien
         F                            Bb
Que nos falta por todos lados, como salimos esta vez
         Gm                     Cm           D                              Gm
No necesitamos nada de lo que perdimos, pero no teníamos nada pero nada que ver

Cm                Gm     F                             Cm
Solo confío en su voz ....ahhh..... solo le creo a esa única voz....
Eb                   Gm                           F                D
porque te ganaste el cielo......y nos cubriste a los dos ....a los dos

Gm                                       Cm
Y no me olvido de tus caricias y no me olvido de tu dolor
        F                                  Bb
Que pensaste en nosotros primero, no te acordaste solo de vos
          Gm                          Cm
Para que hubiera para almorzar y que tuviéramos en que soñar
       D                              Gm
No lo dudes de todo eso no me voy a olvidar

Cm                 Gm        F
Solo confío en su voz........

Gm
Y no me olvido de tus caricias.........

Cm                 Gm      F
Solo confío en su voz......



Aguante el rock uruguayo......y los demas tambien......F:'El cirujano de guitarras'
Versión 3 - La única voz (Letra y acordes)
Gm                                                 Cm
Algunos siguen dudando si existe el amor
F                                       Bb
Y se siguen preguntando a donde llega la razon
Gm                                                     Cm
Pero yo no me olvido de todo lo que me diste
D                                                  Gm
Te lo digo con una mano en el corazon
Que no es facil poder hacer el bien sin mirar a quien
Que nos falta por todos lados como salimos esta ves
No necesitamos nada de lo que perdimos
Pero no teniamos nada ,pero nada que ver

Cm                    Gm      Cm                       Gm
Solo confio en su vos, solo le creo a esa unica vos
Cm                    Gm      Cm                                      D
Porque te ganaste el cielo y nos cubriste a los dos

Y no me olvido de tus caricias y no me olvido de tu dolor
Que pensaste en nosotros primero, no te acordaste solo de vos
Para que hubiera para almorzar, y que tuviéramos en que soñar
No lo dudes de todo eso no me voy a olvidar

Solo confio en su vos, solo le creo a esa unica vos
Porque te ganaste el cielo y nos cubriste a los dos

Y no me olvido de tus caricias y no me olvido de tu dolor
Que pensaste en nosotros primero, no te acordaste solo de vos
Para que hubiera para almorzar, y que tuviéramos en que soñar
No lo dudes de todo eso no me voy a olvidar


Aguante La Cremona

Nachin y Matu
Versión 4 - La única voz (Tablatura para bajo (bass tab))
Intro

1º|-------------|-------|---------|
2º|-------------|-------|---------|
3º|-------------|-------|---------|
4º|-3-3-0-1-2-3-|-3-1-3-|-2-0-1-3-|

1º|-----------|-------|---------|---------|
2º|-----------|-------|---------|---------|
3º|-----------|-------|---------|---------|
4º|-3-0-1-2-3-|-3-1-3-|-2-0-1-3-|-2-0-1-1-|

Repite eso hasta el min. 1:24

(1:24)

1º|-------------|-------|---------|-------------|----------
2º|-------------|-------|---------|-------------|-4/5------
3º|-------------|-------|---------|-------------|-----6-5-3
4º|-3-3-0-1-2-3-|-3-1-3-|-2-0-1-3-|-3-0-1-2-2/4-|----------

-------|-----------|-------|---------|
-------|-----------|-------|---------|
-------|-----------|-------|---------|
-5-4-6-|-3-0-1-2-3-|-3-1-3-|-2-0-1-3-|

(1:45)

1º|-------------|-------|---------|
2º|-------------|-------|---------|
3º|-------------|-------|---------|
4º|-3-3-0-1-2-3-|-3-1-3-|-2-0-1-3-|

Repite eso hasta el min. 2:11

(2:11)

1º|-------------|-------|---------|-------------|----------
2º|-------------|-------|---------|-------------|-4/5------
3º|-------------|-------|---------|-------------|-----6-5-3
4º|-3-3-0-1-2-3-|-3-1-3-|-2-0-1-3-|-3-0-1-2-2/4-|----------

-------|-----------|-------|---------|
-------|-----------|-------|---------|
-------|-----------|-------|---------|
-5-4-6-|-3-0-1-2-3-|-3-1-3-|-2-0-1-3-|

(2:31)

(Solo) REPITE ESTO...

1º|-------------|-------|---------|
2º|-------------|-------|---------|
3º|-------------|-------|---------|
4º|-3-3-0-1-2-3-|-3-1-3-|-2-0-1-3-|

(2:55) (Fin del solo)

1º|-------------|-------|---------|
2º|-------------|-------|---------|
3º|-------------|-------|---------|
4º|-3-3-0-1-2-3-|-3-1-3-|-2-0-1-3-|
REPITE DE NUEVO HASTA EL MIN. 3:21

(3:21)

1º|-------------|-------|---------|-------------|----------
2º|-------------|-------|---------|-------------|-4/5------
3º|-------------|-------|---------|-------------|-----6-5-3
4º|-3-3-0-1-2-3-|-3-1-3-|-2-0-1-3-|-3-0-1-2-2/4-|----------

-------|
-------|
-------|
-5-4-6-|

(3:30)

1º|-------------|-------|---------|
2º|-------------|-------|---------|
3º|-------------|-------|---------|
4º|-3-3-0-1-2-3-|-3-1-3-|-2-0-1-3-|

(4:41)

1º|-------------|-------|---------|-------------|----------
2º|-------------|-------|---------|-------------|-4/5------
3º|-------------|-------|---------|-------------|-----6-5-3
4º|-3-3-0-1-2-3-|-3-1-3-|-2-0-1-3-|-3-0-1-2-2/4-|----------

-------|
-------|
-------|
-5-4-6-|

Repite hasta el final...

Eso es todo!!

Saludos!

El material contenido en esta página es para exclusivo uso privado y con propósito meramente educativo, se prohibe su reproducción y uso con fines comerciales