El Error

Tabs, letra y acordes de 'El Error' por No Te Va Gustar

Versiones disponibles: Tablatura para guitarra (TAB) - Letra y acordes - Letra y acordes - Tablatura para bajo (bass tab)

Acá les traigo lo que seria la intro del tema, suena bastante bien.
Es mi primer aporte espero que les guste.
Sugerencias, correcciones (joacocozzani@hotmail.com)

Disfruten.

Intro: A# F Cm Gm F x2  A#

1ra parte

   A#         F
e|-----------------
B|-----------------
G|----5-8-7-----5--
D|--8-------8-5----
A|-----------------
E|-----------------

            Cm      Gm               F
e|---------------|----------------|---------------|
B|--18-16-15-13--|------11--------|----10---------|
G|---------------|---------10-----|-------10s8----|
D|---------------|--s12-------12--|--10--------8--|
A|---------------|----------------|---------------|
E|---------------|----------------|---------------|

2da parte

   A#       F
e|---------------
B|---------------
G|--8-7---7-5----
D|------8--------
A|---------------
E|---------------

            Cm      Gm               F
e|---------------|----------------|---------------|
B|--18-16-15-13--|------11--------|----10---------|
G|---------------|---------10-----|-------10s8----|
D|---------------|--s12-------12--|--10--------8--|
A|---------------|----------------|---------------|
E|---------------|----------------|---------------|

Después del primer estribillo repite la primer parte de la intro.
Si prestan atención al tema, algunos de estas "frases"
se repiten en el estribillo.
Versión 2 - El Error (Letra y acordes)
Intro: A# F Cm Gm F x2  A#

Estrofa

A#         D#           A#
¿Quien es usted impostor?
             F             Gm
se escucha en la madrugada.
         D#           A#
Ella esperaba el amor,
F               Gm
cómodamente sentada.

               D#        A#
El la vio una sola vez,
         F           Gm
y le quemo la mirada.
        D#              A#
Solo un segundo basto,
F                  Gm
para quedarle grabada.

Gm
            D#            A#
Los dos sintieron lo mismo,
       F               Gm
los unía el mismo lazo.
        D#            A#
Ella no puedo seguirlo,
F                     Gm
ni siquiera vio sus pasos.

Bajada: Gm - F

Estribillo:

A#             F        Cm  Gm F  A#
Nunca hubiera funcionado,   quizás...
A#             F        Cm  Gm F  A#
Como llegaste tan pronto,   te vas.

Intro

Estrofa: (igual a las primeras)

Fue fugaz, fue pasajera,
su relación fue un error.
Como si se conocieran,
conocieron el temor.

Nunca lo volvió a ver,
de ella no se supo nada.
Tal vez, lo seguirá esperando,
cómodamente sentada.

Estribillo:

Nunca hubiera funcionado, quizás...
Como llegaste tan pronto, te vas.

Tan pronto, tan pronto, te vas...
Versión 3 - El Error (Letra y acordes)
Hola! les vengo a traer este exelente tema del ultimo Cd de No te va gustar:
"El calor del pleno invierno"

Intro:  A#  F  Cm  Gm F    A#  Gm

            D#           A#
¿Quién es usted impostor?
               F           Gm
se escucha en la madrugada.
          D#          A#
Ella esperaba el amor,
F             Gm
cómodamente sentada.

Gm                D#      A#
   El la vio una sola vez,
        F            Gm
y le quemo la mirada.
           D#          A#
Solo un segundo basto,
F                     Gm
Para quedarle grabada.

Gm

            D#             A#
Los dos sintieron lo mismo,
       F               Gm
los unía el mismo lazo.
         D#           A#
Ella no pudo seguirlo,
F                         Gm  F
ni siquiera vio sus pasos.

A#         F              Cm  Gm F
Nunca hubiera funcionado,    quizás...
A#       F               Cm  Gm F
Como llegaste tan pronto,    te vas.

Intro


Gm        D#               A#
   Fue fugaz, fue pasajera,
         F               Gm
su relación fue un error.
         D#           A#
Como si se conocieran,
F                   Gm
conocieron el temor.

             D#       A#
Nunca lo volvió a ver,
            F
de ella no se supo nada.
     Gm          D#           A#
Tal vez, lo seguirá esperando,
F                   Gm  F
cómodamente sentada.

A#         F              Cm  Gm F
Nunca hubiera funcionado,    quizás...
A#       F               Cm  Gm  F   A#
Como llegaste tan pronto,    te vas.


Bueno, espero que les sirva, Saludos.
Facundo Beutler
Versión 4 - El Error (Tablatura para bajo (bass tab))
Intro:

G|---------------------------------------------|
D|---------------------------------------------|
A|-----5-6-8-88-------6-5----------------------|
E|-6-6----------6-8-8-----8-3-1----------------|

G|---------------------------------------------|
D|---------------------------------------------|
A|-----5-6-8-88-------6-5----------------------|
E|-6-6----------6-8-8-----8-3-1-6--------------|

Quien es usted impostor? ..

G|---------------------------------------------|
D|--------------5----------3-3---5-------------|
A|-------5-66-----6------5-----5---------------|
E|-3-6-8------6-----66-6-----------3-----------|

G|---------------------------------------------|
D|--------------5---------3-3---5--------------|
A|-------5-66-----6-8---5-----5----------------|
E|-6-8--------6-------6------------3-----------|

Él la vio una sola vez,

G|---------------------------------------------|
D|------------5----------3-3---5---------------|
A|-----5-66-----6------5-----5-----------------|
E|-6-8------6-----66-6-----------3-------------|

G|---------------------------------------------|
D|------------5---------3-3-55-3-5-55-3-5------|
A|-----5-66-----6-8---5------------------------|
E|-6-8------6-------6--------------------------|

Los dos sintieron lo mismo,

G|---------------------------------------------|
D|------------5----------3-3---5---------------|
A|-----5-66-----6------5-----5-----------------|
E|-6-8------6-----66-6-----------3-------------|

G|---------------------------------------------|
D|------------5---------3-3-55-3-5-3-5-55-5-3--|
A|-----5-66-----6-8---5------------------------|
E|-6-8------6-------6--------------------------|

Estribillo

G|---------------------------------------------|
D|---------------------------------------------|
A|-----5-6-8-88-------6-5----------------------|
E|-6-6----------6-8-8-----8-3-1----------------|

G|---------------------------------------------|
D|---------------------------------------------|
A|-----5-6-8-88-------6-5----------------------|
E|-6-6----------6-8-8-----8-3-1-6--------------|

ESPERO LES GUSTE!

VOY A SUBIR MUCHOS MAS TAB DE BAJO DE NOTEVAGUSTAR!

ELIAS C.

El material contenido en esta página es para exclusivo uso privado y con propósito meramente educativo, se prohibe su reproducción y uso con fines comerciales