Poderoso

Tabs, letra y acordes de 'Poderoso' por Marcos Witt

Versiones disponibles: Tablatura para guitarra (TAB) - Tablatura para guitarra (TAB) - Tablatura para guitarra (TAB) - Letra y acordes - Tablatura para bajo (bass tab) - Tablatura para bajo (bass tab)

E|-------|----------------|----------------------------------------------|
B|-------|----------------|---------------------7-8----------------------|
G|---5-7-|-9-9--9-----5-7-|--8-7-5-7---(7)(V)----------------------------|
D|-7-----|--(T)-----------|----------------------------------------------|
A|-------|----------------|----------------------------------------------|
E|-------|----------------|----------------------------------------------|

E|-----------------------|-------------|--5---7---8---/10---10(T)--------|
B|-9-/10---8-5-----------|-----------5-|----5---5---5--------------------|
G|---(T)-------8-7-5-----|-9-9--9------|---------------------------------|
D|-------------------7-5-|----(T)------|---------------------------------|
A|-----------------------|-------------|---------------------------------|
E|-----------------------|-------------|---------------------------------|

E|-10-8-6-4-5--6-8-------5-6-|--7--10-7-----------------|----------------|
B|----------------\8-6-------|----------8---------------|----------------|
G|-----------------(T)-------|------------7-5-4-----5-7-|-9-9-9----------|
D|---------------------------|--------------(T)---7-----|--(T)-----------|
A|---------------------------|--------------------------|--------2-3-4---|
E|---------------------------|--------------------------|----------------|



E|-------4---------7-----------10-|--13-12-13------------------------|
B|--------------------------------|----------------------------------|
G|-5-4-5----8-7-8-----11-10-11----|----------------------------------|
D|--------------------------------|----------------------------------|
A|--------------------------------|---------------3--5(V)------------|
E|--------------------------------|------------/5--------------------|

(T)= HACER VIBRAR LA FIGURA CON LA PALANCA DE TREMOLO
(V)= HACER VIBRAR EN FORMA NORMAL..
Versión 2 - Poderoso (Tablatura para guitarra (TAB))
 Hola amigos le dejo esta tablatura de esta canción
 es de el concierto 25 conmemorativo ojala les guste

 Intro.

 E-------------------------------
 B-------------------------------
 G-------------------------------
 D--------------------5-7-5-7v---
 A--5s7-5-3----------------------
 E----------3-5--3-5-------------


 E----------------------------------
 B----------------------------------
 G----------------7---5v-----8s10---
 D------------------7----7s9--------
 A--5s7-5-3-----5-------------------
 E----------3-----------------------


 E---------------------------
 B---------------------------
 G---------------------------
 D----------------5-7-5-7v---
 A--7-5-3--------------------
 E--------3-5-3-5------------


 E----------------------------
 B----------------------------
 G----------------------------
 D------------------5-7-5-v7--
 A--5s7-5-3-------------------
 E----------3-5-3-5-----------

 Verso.
 HAce algo asi

 Cristo es el rey no hay nadie como EL

 E--------------------x-----
 B--------------------7-----
 G--------------------5-----
 D--------------------7-----
 A--------------------x-----
 E--------------------x-----

 ES poderoso

 E-----------------
 B-----------------
 G-----------------
 D-----------------
 A----------3-5v---
 E--3-5-3-5--------

 Sobre satanas el tomo la autoridad

 E-------------------------------
 B-------------------------------
 G-------------------------------
 D-------------------------------
 A--5-3-5-3---0-3-5--5-3-5-3-----
 E----------5----------------5---

 Es Poderoso

 E------------------
 B------------------
 G------------------
 D------------------
 A----------3-5-----
 E--3-5-3-5---------

 Ante su poder las tinieblas han de caer

 E---x----------------------------------
 B---7----------------------------------
 G---5----------------------------------
 D---7----------------------------------
 A---x----------------------------------
 E---x----------------------------------

 Es POderoso

 E-----------------
 B-----------------
 G-----------------
 D-----------------
 A----------3-5----
 E--3-5-3-5--------

 Sobre el trono esta coronado en majestad

 E-------------------------------
 B-------------------------------
 G-------------------------------
 D-------------------------------
 A--5-3-5-3---0-3-5--5-3-5-3-----
 E----------5----------------5---

 Precoro.

 El nos prometio muy pronto regresara
 E-------------10s12-10-12-10-12-10-12v----
 B------------------------------------------
 G--4-5-7-7s9v------------------------------
 D------------------------------------------
 A------------------------------------------
 E------------------------------------------

 E----------------------
 B----------------------
 G----------------------
 D----------------------
 A--7-6-5-4-3-4-5-6v----
 E----------------------

 Coro.

 Poderoso

 E-----------------------------
 B-----------------------------
 G-----------------------------
 D------------------5-7-5-7v---
 A--7-5-3----------------------
 E----------3-5-3-5------------

 Poderoso

 E-----------------------------
 B-----------------------------
 G-----------------------------
 D------------------5-7-5-7v---
 A--5s7-5-3--------------------
 E----------3-5-3-5------------

 El leon de Juda, nunca perdera

 E-------------------------------
 B-------------------------------
 G-------------------------------
 D--7s12v-12s14v-14s15v-15s17v---
 A-------------------------------
 E-------------------------------

 Poderoso

 E-----------------------------
 B-----------------------------
 G-----------------------------
 D------------------5-7-5-7v---
 A--5s7-5-3--------------------
 E----------3-5-3-5------------

 Poderoso

 E-----------------------------
 B-----------------------------
 G-----------------------------
 D------------------5-7-5-7v---
 A--5s7-5-3--------------------
 E----------3-5-3-5------------

 Solo

 E--------------------------------------
 B--------------------------------------
 G--------7-7s9-7s9-7s9v--5s7-7s5s7v----
 D---9-10-------------------------------
 A--------------------------------------
 E--------------------------------------

 E---------------------------------------------
 B--7-8-9-9s10-9s10s9--------------------------
 G-------------------9-8-7-5-----7s9-7s9-7s9v--
 D---------------------------7-5---------------
 A---------------------------------------------
 E---------------------------------------------

 E--------------------------------
 B----10---12---13---13s15-15v----
 G--9----9----9----9--------------
 D--------------------------------
 A--------------------------------
 E--------------------------------

 E------------------------------
 B--15-13-11-10-11-13-----------
 G--------------------12-10-----
 D------------------------------
 A------------------------------
 E------------------------------

 E-----------10----------------
 B--10-11-12----12-8-----------
 G-------------------7-5-4v----
 D-----------------------------
 A-----------------------------
 E-----------------------------

 E-----------------------------
 B-----------------------------
 G--7s9-7s9-7s9av--------------
 D-----------------------------
 A-----------------3-4-5v------
 E-----------------------------

 E--------------------------------13-12-13v--
 B--------9--------12----------15-------------
 G--7-6-5----9-8-7-----11-10-9----------------
 D--------------------------------------------
 A--------------------------------------------
 E--------------------------------------------

 Para pasar a aleluya

 E-----------
 B-----------
 G-----------
 D-----------
 A----3-5----
 E--5--------

 Si encuentran algún error me avisan a mi correo porfavor
manuelito_9595@hotmail.com que Dios les bendiga
Versión 3 - Poderoso (Tablatura para guitarra (TAB))
INTRO:

6: ----------------------
5: 7-5-3--5-3-5-3-5h3-5h3 (x1)
4: ----------------------

la segunda parte del intro es practicamente
lo mismo pero en la guitarra varia asi:

6: ------3----------------
5: 7-5-3---5--------------
4: -----------7---8------- (x1) de aqui empieza con la de arriba (x2)
3: ---------7---5---------
2: ------------------6----
1: -----------------------


D
Cristo es el rey no hay nadie como él        * D --]  6: xxxxxxxxxxxxxxx
                                                      5: xxxxxxxxxxxxxxx
       G-A-G-A-C-D                                    4: 7--------------
es Podero - so                                        3: 5--------------
                                                      2: 7--------------
D                                                     1: xxxxxxxxxxxxxxx
sobre satanas él tomo la autoridad

        G-A-G-A-C-D
es Podero - so                            nota: donde puse G-A-G-A-C-D no van
                                                            acordes si
D                                                        no tab.
ante su póder, las tinieblas han de caer

        G-A-G-A-C-D
es Podero - so

D
sobre el trono está, coronado en majestad

E                             E-D#-D-C#-C-C#-D-D#
él nos prometio que pronto regresara


6: ----------------------
5: 7-5-3--5-3-5-3-5h3-5h3 (x1) MIENTRAS DICE PODEROSO ES ESTA TAB
4: ----------------------

Poderoso, Poderoso

   D
el Leon de Juda nunca perdera, porque es el

6: ----------------------
5: 7-5-3--5-3-5-3-5h3-5h3 (x1) MIENTRAS DICE PODEROSO ES ESTA TAB
4: ----------------------

Poderoso, Poderoso


SOLO:

PRIMERA PARTE

5: ---------------------------------------------------------
4: 5h7----------------------------------------9-------------
3: ---5h7s9-7s9-7s9--7-5-7b8--------9--9-8-7s5-5------------
2: -------------------------7-8-9-10-------------3s5-3s5-3s5
1: ---------------------------------------------------------

SEGUNDA PARTE

4:---------------------------------------------------------------------
3: ----------------------------------------------------3s5s4-----------
2: 5-5-5-------------------11-10-11--6s8-----------9s8------3s5-3s5-3s5
1: -5-7-8s10-8s10-8s10-10-8--------8----5-6-7--10-7--------------------

ULTIMA PARTE

5: 2-3-4-----------------------------------------------------
4: ----------------------------------------------------------
3: ------4-3-4----6-5-6----11-10-11--------------------------
2: ----------------------------------------------------------
1: ------------3--------5-----------10--13-12-13-------------

Alberto Geve Fb, Dios los bendiga:)
Versión 4 - Poderoso (Letra y acordes)
Am
Poderoso, Poderoso

   Dm
el Leon de Juda nunca perdsera, porque es el

Am
Poderoso, Poderoso

   C  Dm
es el Santo de Israel nada temere porque es el

Am
Poderoso, Poderoso

Am
Cristo es el rey no hay nadie como él

        G   Am   G   Am   C
es Podero - so

Dm
sobre satanas él tomo la autoridad

        G   Am   G   Am   C
es Podero - so 

Am
ante su póder, las tinieblas han de caer

        G   Am   G   Am   C
es Podero - so

Dm
sobre el trono está, coronado en majestad

Esus4                          E
él nos prometio que pronto regresara
Versión 5 - Poderoso (Tablatura para bajo (bass tab))
Afinación: G D A E

  (0:58) Intro
G |------------------------------------------------------------5-----|
D |-----------------------------------------------------5--------7--5|
A |-----------------3-----------------------3---------7---7--5-------|
E |/\---3-5---0-3-5---5--3-5----3-5---0-3-5---5--3-5-----------------|

  Coro 1
G |-------------------------------------------------------------------
D |---------5-7-5-7-----------------------------------5-7-5-7---------
A |----------------------------5s7-7--3--5----------------------------
E |--5-3-5-------------5-3-5-------------------5-3-5------------5-3-5-

G |--------------------------5h7--------------------5h7---------------
D |----------------------5-7--------------------5-7------------5-7-5-7
A |-----3---5-3-5—-5-5s8----------5-3-5---5-5s8-----------------------
E |-3-5-------------------------------------------------5-3-5---------

G |-------------------------------------------------------------------
D |------------------------------5-7-5-7------------------------------
A |---------5s7-7--3-5--------------------------------3---5-3-5--5-5s8
E |-5-3-5-----------------5-3-5------------5-3-5—-3-5----------------

G |-----5h7-------------------5h7-------------------------------------
D |-5-7-------------------5-7-------------5-7-5-7---------------------
A |----------5-3-5—-5-5s8-----------------------------------5s7-7--3-5
E |------------------------------5-3-5--------------5-3-5-------------

G |---------------------------------------------|
D |-----------5-7-5-7---------------------------|
A |--------------------------------8-7----------|
E |--5-3-5---------------3-5--7-8---------5-----|

  (2:13)
G |------------------------------------------------------------------
D |----------------J7-J7-------J5--------------J7-J7-------J5--------
A |-----------------------P5h7------------------------P5h7-----------
E |-/\--P5-P5-P5--------------------P5-P5-P5--------------------P5-P5

G |----------------------------------------------------------|
D |------J7-J7-------J5---------------J7-J7-------J5---------|
A |-------------P5h7-------------------------P5h7------------|
E |-P5---------------------P5-P5-P5--------------------P5\---|

  (2:27)
G |-------------------------------------------------------------------
D |--------------3-------------------------------------------------3--
A |---------3--5---5-----------------3----3-------------------3--5---5
E |3-5--3-5-----------------3-5--3-5----5---5--------3-5--3-5---------

G |---------------------------------------------------|
D |---------------------------------------------------|
A |------7--7--------7--7--7-------7-6-5-4-3-2--------|
E |-/\---------0--0-----------------------------0-0---|


   Coro 2
G |-------------------------------------------------------------------
D |---------5-7-5-7-----------------------------------5-7-5-7---------
A |----------------------------5s7-7--3--5----------------------------
E |--5-3-5-------------5-3-5-------------------5-3-5------------5-3-5-

G |----------------|
D |----------------|
A |-----3----------|
E |-3-5----5\------|

  (3:08)
G |--------------------------------------------------------------|
D |-----------------------4-----4------------4-----4-------------|
A |-----------------------------------------------------------3--|
E |-3--5---------5--3--2----2-2-----5--3--2----2-2-----3---------|

Después de la canción siguen algunas notas mientras marcos witt habla.

A continuación se escriben estas notas en tiempo exacto.

  (3:30)                   (3:48)
G |-----------------------|-------------------------|
D |----------13-----------|-------------------------|
A |--3/15-15----15-15\--3-|-3/15—15h17p15-15--15-15-|
E |-----------------------|-------------------------|

  (4:28) Puente (tocan todo el grupo)
G |-------------------------------------------------------------------
D |-------------------------------------------------------------------
A |3---3-3-3---3--3-3---1--1----3---3-3-3---3--3-3---1--1----3---3-3-3
E |-------------------------------------------------------------------

G |---------------------------------------------------|
D |---------------------------------------------------|
A |---3--3-3---1--1----3---3-3-3---3--3-3---1--1---3--|
E |---------------------------------------------------|

Después de este puente marcos sigue hablando y pasa a la otra pista
que es levántate.

Así termina esta pista.
Versión 6 - Poderoso (Tablatura para bajo (bass tab))
Poderoso-25 años Conmemorativo-Marcos Witt

Introducción:

B ||--------------------------------------||
E ||---------------3-5-3-5----------------||
A ||---7--5--3----------------------------||
D ||--------------------------5-7--5-7----||
G ||--------------------------------------||


B ||--------------------------------||
E ||-------------3--------5---6-----||
A ||---7--5--3-------5-5----3-------||
D ||-----------------------------3--||
G ||--------------------------------||


B ||-----------------------------------------------------------------||
E ||------------3-5-3-5------------------------3-5-3-5-5-5-5-5-5-----||
A ||-----5--3------------------------7--5--3-------------------------||
D ||--2------------------5-7-5-7-------------------------------------||
G ||-----------------------------------------------------------------||


Verso:

B ||---------------------------------------------------||
E ||-----------------3h5------------------3-5-3-5------||
A ||---3h5---3x-3h5------- 3h5---3x-3h5------------3---||  x2
D ||---------------------------------------------------||
G ||---------------------------------------------------||


B ||--------------------------------------------||
E ||--5----------------------------3-5-3-5------||
A ||------12----------------12--------------3---||
D ||---------14-------14-12---------------------||
G ||------------14-13---------------------------||



B ||----------------------------------------------------------------||
E ||----------------3h5---------------------0-----------------------||
A ||--3h5---3x-3h5--------3h5---3x-3h5---7-----7-6-5-4-3-4-5-6--7---||
D ||----------------------------------------------------------------||
G ||----------------------------------------------------------------||

Coro:

B ||-------------------------------------||
E ||---------------3-5-3-5---------------||
A ||---7--5--3---------------------------|| x2
D ||--------------------------5-7--5-7---||
G ||-------------------------------------||


B ||-----------------------------||
E ||----------------5h7----------||
A ||---(4)-5--5-5--------5--5-5--||
D ||-----------------------------||
G ||-----------------------------||


B ||--------------------------------------------------------------||
E ||------------3-5-3-5----------------------------3-5-5-5-5-5----||
A ||--7--5--3----------------------------7--5--3------------------||
D ||----------------------5-7--5-7--------------------------------||
G ||--------------------------------------------------------------||


Puente:

B ||------------------------------------------||
E ||---5-5-5----------------------------------||
A ||-----------(2)-3-3-3---(4)-5-5-5---3-3-2--||
D ||------------------------------------------||
G ||------------------------------------------||


B ||---------------------------------------------------------||
E ||--5-------------------10--(9)-8-8-8----------------------||
A ||-----------------10-7-----------------(4)-5-5-5---3-3-2--||
D ||------------10-7-----------------------------------------||
G ||-------10-7----------------------------------------------||


B ||---------------------------------||
E ||--------0--1-----------5---------||
A ||--3--5---------3-2-3-----3-5-----||
D ||---------------------------------||
G ||---------------------------------||





Post Data:

-Este documento es Material de Apoyo del Video

“Poderoso y Aleluya 25 conmemorativo Tutorial de Bajo”

de este respectivo Link: https://youtu.be/YrrQumPjBJQ

-Te invitamos a que visites

nuestro canal en YouTube: "Nuevos Adoradores"

y veas diferentes: Tutoriales, Cover’s, Clases,

Reflexiones también en: https://nuevosadoradores.wordpress.com/

Y así poder ser de bendición para ti.

El material contenido en esta página es para exclusivo uso privado y con propósito meramente educativo, se prohibe su reproducción y uso con fines comerciales