Un idiota

Tabs, letra y acordes de 'Un idiota' por Joan Sebastian

Versiones disponibles: Tablatura para guitarra (TAB) - Tablatura para guitarra (TAB) - Tablatura para guitarra (TAB) - Letra y acordes

El requinto se hace asi esta mejorado de un guey:

6.-------------------------------------------------------------
5.-------------------------------------------------------------
4.-12/11-11/9-9/7--7-------------------------------------------
3.-------------------6---6----6---6/5------7-6---6---6---6/5---
2.---------------------5--------5-----7/6------5-------5-------
1.--------------------------5-----------------------5----------

6.---------------------------------------------
5.---------------------------------------------
4.---------------------------------------------
3.------------------6---6/5--------------------
2.-6/5-5-5-5/3-3------5-------------10/11------
1.----------------5-----------10/9-------------

Aquí viene el requinto
De la parte hablada

6.------------------------------------------------
5.------------------------------------------------
4.------------------------------------------------
3-------------------------------------------------
2.-----10-12--------12-10---10-12---------12-10-10
1.--9--------9-10-9-------9--------9-10-9---------

6.-------------------------------
5.-------------------------------
4.-------------------------------
3..-10-------------------10-12---
2.-.-----9-10-12-10-9-10---------
1.-------------------------------





6.---------------------------------------------------
5.---------------------------------------------------
4.---------------------------------------------------
3.---------------------------------------------------
2.-----10-12--------12-10---10-12---------12-10-10---
1.--9--------9-10-9-------9--------9-10-9------------

6.--------------------------------
5.--------------------------------
4.--------------------------------
3.-10-------------------10-12-14--
2.-----9-10-12-10-9-10------------
1.--------------------------------


una correccion en donde ec "C" VA "F#m"
bueno eso segun sus gustos




PARTE HABLADA

AQUÍ VA EL REQUINTO
         Y LOS ACORDES SON CON UNA SEGUNDA
GUITARRA…

 ---------------------------------------------------------
 | A                                                     |
 |“HOLA MI AMOR,                                         |
 |                                      F#m              |
 | SE QUE CAMBIASTE TU NUMERO DE TELEFONO                |
 |                                              D        |
 |   Y SE QUE CAMBIASTE HASTA EL COLOR DE TU PELO        |
 |                                                       |
                          E                              |
 |   PORQUE EMPIEZAS UNA NUEVA VIDA SIN MI,              |
 |  A                                                    |
 |   SABES AMOR, DESEO QUE ENCUENTRES                    |
 |                                             F#m       |
 |   TODA LA FELICIDAD QUE YO SOÑABA PODER DARTE,        |
 |               A      D      A                         |
 |   NO LO LOGRE... PERDONAME”.                          |
 |--------------------------------------------------------
     A
    SE QUE TE MARCHASTE SIN SABER
                             C
    SIN ESCUCHAR SIN COMPRENDER
                           A                 E
    QUE HAY UNA DAGA ENVENENADA AQUÍ EN MI PECHO

    EL MAL YA ESTA HECHO

              A
    AHORA... SE QUE NO MEREZCO TU PERDON
                        D
    QUE LASTIME TU CORAZON
                                            E
    HOY ME AVERGÜENZO FUI EL MOTIVO DE TU LLANTO

    QUERIENDOTE TANTO PUES...

       A       C
    TE AMO, TE AMO
              A          D         A
    SOY UN IDIOTA TE PERDI PERO TE AMO
       A       C
    TE AMO, TE AMO
              A          D         A
    SOY UN IDIOTA TE PERDI PERO TE AMO


PARTE HABLADA CON EL REQUINTO ANTES MENCIONADO

-----------------------------------------------------------|
|  “NO, NO PUEDO EXIGIR QUE ME PERDONES                    |
|                                        C                 |
|   MIS ERRORES SON GRAVES Y ES MUY DURO                   |
|                                  D                       |
|   CAMINE POR LA SENDA EQUIVOCADA                         |
|                     E                                    |
|   CUANDO ME DISTE AMOR, ESE AMOR PURO                    |
|  A                                                       |
|   HOY NO SIRVEN DE NADA MIS PREGONES                     |
|                                   C                      |
|   CUANDO QUISE VOLVER YA ERA MUY TARDE                   |
|                              D                           |
|   CAMINE POR LA SENDA EQUIVOCADA                         |
|                 E               A                        |
|   Y TE HICE LLORAR... SOY UN COBARDE”.                   |
| ---------------------------------------------------------|
     A
    SE QUE OTRO AMOR ENCONTRARAS
                             C
    QUE TE DE LUZ QUE TE DE PAZ
                F#m                      D
    QUE TE DE TODO LO QUE YO NO SUPE DARTE

    QUISIERA ABRAZARTE PERO...

     A
    SE QUE NO MEREZCO TU PERDON
                        C
    QUE LASTIME TU CORAZON
                                          D
    Y HOY NAUFRAGO EN ESTE MAR DE TU ABANDONO

    NI YO ME PERDONO Y...

       A       D
    TE AMO, TE AMO...

       A       D
    TE AMO, TE AMO

Pues aquí esta esta cancion
Les va a gustar por que el primer requinto esta mejorado
Bueno voten por esta

Y cuidense de la banda de migue

A mi correo es
Aldo.yap.pj@hotmail.com
Versión 2 - Un idiota (Tablatura para guitarra (TAB))
Para los que pedian el requinto aqui esta:

       INTRO
------------------------------------------------------/E
------------------------------------------------------ A
-12p11p-9p-7--7-----------7-----------7--------------- D
---------------6-6-6-6-7p6-6-6-6-6-6h7--6-6-6--------- G
----------------5---5-------5---5------5---5---------- B
------------------5-----------5----------5------------e

p= LIGADO DESENDENTE
h= LIGADO ASENDENTE

 REQUINTO

Junto con el requinto van los versos
------------------------------------------------------------------------/E
------------------------------------------------------------------------ A
------------------------------------------------------------------------ D
---------------------------------------------11-----------------11-13--- G
--10-12--------12-10---10-12--------12-10-10----9-10-12-10-9-10--------- B
-9------9-10-9-------9-------9-10-9-------------------------------------e




-------------------------------------------------------------------------/E
------------------------------------------------------------------------- A
------------------------------------------------------------------------- D
---------------------------------------------11-----------------11-13-14- G
--10-12--------12-10---10-12--------12-10-10----9-10-12-10-9-10---------- B
-9------9-10-9-------9-------9-10-9--------------------------------------e

 A
Se que te marchaste sin saber
                        F#m
sin escuchar sin comprender
                        D
que hay una daga envenenada
            E
aqui en mi pecho

el mal ya esta hecho

 A
Se que no merezco tu perdon
                    F#m
que lastime tu corazon

hoy me averguenzo
          D          E
fui el motivo de tu llanto

queriendote tanto pues...

 A       F#m
Te amo, te amo
         D           E
soy un idiota te perdi
          A
pero te amo

 A       F#m
Te amo, te amo
         D           E
soy un idiota te perdi
          A
pero te amo


             REQUINTO


Junto con el requinto van los versos
------------------------------------------------------------------------/E
------------------------------------------------------------------------ A
------------------------------------------------------------------------ D
---------------------------------------------11-----------------11-13--- G
--10-12--------12-10---10-12--------12-10-10----9-10-12-10-9-10--------- B
-9------9-10-9-------9-------9-10-9-------------------------------------e




-------------------------------------------------------------------------/E
------------------------------------------------------------------------- A
------------------------------------------------------------------------- D
---------------------------------------------11-----------------11-13-14- G
--10-12--------12-10---10-12--------12-10-10----9-10-12-10-9-10---------- B
-9------9-10-9-------9-------9-10-9--------------------------------------e

 A
Se que otro amor encontraras
                          F#m
que de de luz, que te de paz
                        D
que te de todo, lo que yo
         E
no pude darte

quisiera abrazarte pero...

 A
Se que no merezco tu perdon
                    F#m
que lastime tu corazon

y hoy naufrago
         D             E
en este mar de tu abandono

ni yo me perdono y ...


 A       F#m
Te amo, te amo
         D           E
soy un idiota te perdi
          A
pero te amo

 A       F#m
Te amo, te amo
         D           E
soy un idiota te perdi
          A
pero te amo

 A       F#m
Te amo, te amo
         D           E
soy un idiota te perdi
          A
pero te amo

 A       F#m
Te amo, te amo
         D           E
soy un idiota te perdi

pero te amo

                      A
------------------------/E
------------------------ A
------------------------ D
------------------------ G
--10-12--------12-10---- B
-9------9-10-9----------e

HASTA LUEGO ESA BANDERA
SU INSEGURO SERVIDOR
EL QUE DICE ESTAR DISPUESTO
SOY EL POBRE SOÑADOR
Versión 3 - Un idiota (Tablatura para guitarra (TAB))
Intro   Riff 1

Riff 1
                 A            A
e--------------4/5---10/9-7-4/5---9/14-14----14/12--12----------------------
B-3p2-------------------------------------14--------14---10p9-12p10-12/14---
G-----4p2------5/6---11/9-7-5/6---------------------------------------------
D---------4p2---------------------------------------------------------------
A--------------0------------------------------------------------------------
E---------------------------------------------------------------------------

A
“Hola mi amor,
                                     /G#  F#m
sé que cambiaste tu número de teléfono,
                                           D
y se que cambiaste hasta el color de tu pelo
                           E
porque empiezas una nueva vida, sin mí.
 A
Sabes amor, deseo que encuentres
                             /G#      F#m
toda la felicidad que yo soñaba poder darte,
               D      E      A
no lo logré, perdóname”.

 A
Sé que te marchaste sin saber,
                  /G#    F#m
sin escuchar sin comprender,
                                        E
que hay una daga envenenada aquí en mi pecho,

el mal ya está hecho ahora.

A
Sé que no merezco tu perdón,
               /G#   F#m
que lastimé tu corazón,
                                        E
hoy me avergüenzo fui el motivo de tu llanto,

queriéndote tanto pues.

CORO (2)
   A   /G#  F#m
Te amo, te amo,
                    E           A
soy un idiota te perdí, pero te amo.

 A
“No, no puedo exigir que me perdones,
                           /G#   F#m
mis errores son graves y es muy duro,
                          D
caminé por la senda equivocada,
            E
cuando me diste amor, ese amor puro.
A
  Hoy no sirven de nada mis pregones,
                    /G#         F#m
cuando quise volver ya era muy tarde,
                           D
caminé por la senda equivocada,
     E             A
y te hice llorar, soy un cobarde”.

A
Sé que otro amor encontrarás,
                   /G#   F#m
que te de luz que te de paz,
                                   E
que te dé todo lo que yo no supe darte,

quisiera abrazarte pero.

 A
Sé que no merezco tu perdón,
               /G#  F#m
que lastimé tu corazón,
                                     E
y hoy naufrago en este mar de tu abandono,

ni yo me perdono y.

CORO (2)
           D        E              Riff 2
soy un idiota te perdí, pero te amo.

Riff 2

e--------------------
B--3p2---------------
G------4p2-----------
D----------4p2-5/7---
A--------------------
E--------------------

CORO (2)
   A   /G#  F#m
Te amo, te amo,
         D          E           A
soy un idiota te perdí, pero te amo.

FINAL  Riff 3

Riff 3

e---------------
B---------------
G------2-2h4~2--
D--2-4----------
A---------------
E---------------
Versión 4 - Un idiota (Letra y acordes)
A
  “HOLA MI AMOR,
                                          F#m                         
   SE QUE CAMBIASTE TU NUMERO DE TELEFONO 
                                               D 
   Y SE QUE CAMBIASTE HASTA EL COLOR DE TU PELO
                              E 
   PORQUE EMPIEZAS UNA NUEVA VIDA SIN MI,
  A                 
   SABES AMOR, DESEO QUE ENCUENTRES
                                               F#m
   TODA LA FELICIDAD QUE YO SOÑABA PODER DARTE,
               D      E      A 
   NO LO LOGRE... PERDONAME”.

     A                  
    SE QUE TE MARCHASTE SIN SABER
                             F#m
    SIN ESCUCHAR SIN COMPRENDER
                                            E 
    QUE HAY UNA DAGA ENVENENADA AQUÍ EN MI PECHO

    EL MAL YA ESTA HECHO

              A 
    AHORA... SE QUE NO MEREZCO TU PERDON
                        F#m
    QUE LASTIME TU CORAZON
                                            E
    HOY ME AVERGÜENZO FUI EL MOTIVO DE TU LLANTO
                 
    QUERIENDOTE TANTO PUES...

       A       F#m 
    TE AMO, TE AMO
              D          E         A  
    SOY UN IDIOTA TE PERDI PERO TE AMO
       A       F#m 
    TE AMO, TE AMO
              D          E         A
    SOY UN IDIOTA TE PERDI PERO TE AMO


  “NO, NO PUEDO EXIGIR QUE ME PERDONES
                                        F#m
   MIS ERRORES SON GRAVES Y ES MUY DURO
                                  D
   CAMINE POR LA SENDA EQUIVOCADA
                     E
   CUANDO ME DISTE AMOR, ESE AMOR PURO
  A   
   HOY NO SIRVEN DE NADA MIS PREGONES
                                   F#m
   CUANDO QUISE VOLVER YA ERA MUY TARDE
                              D
   CAMINE POR LA SENDA EQUIVOCADA
                 E               A
   Y TE HICE LLORAR... SOY UN COBARDE”.

     A  
    SE QUE OTRO AMOR ENCONTRARAS
                             F#m
    QUE TE DE LUZ QUE TE DE PAZ
                                      E
    QUE TE DE TODO LO QUE YO NO SUPE DARTE
      
    QUISIERA ABRAZARTE PERO...

     A
    SE QUE NO MEREZCO TU PERDON
                        F#m
    QUE LASTIME TU CORAZON
                                          E
    Y HOY NAUFRAGO EN ESTE MAR DE TU ABANDONO
 
    NI YO ME PERDONO Y...

       A       F#m  
    TE AMO, TE AMO...

       A       F#m 
    TE AMO, TE AMO...

El material contenido en esta página es para exclusivo uso privado y con propósito meramente educativo, se prohibe su reproducción y uso con fines comerciales