Eso y más

Tabs, letra y acordes de 'Eso y más' por Joan Sebastian

Versiones disponibles: Tablatura para guitarra (TAB) - Tablatura para guitarra (TAB) - Tablatura para guitarra (TAB) - Tablatura para guitarra (TAB) - Letra y acordes - Letra y acordes

Holaaaa!!!!! aquí les va una de Joan espero que es guste y les sirva




Intro:

Bueno aquí hay dos intros pero tu puedes tocar como te guste mas,
el primero es el intro de la canción original
el segundo es de una presentación de Joan en vivo con algunos arreglos.


Este es el No. 1


Primera parte:                          Segunda parte:

e|--0------2--------2-0h2-----------|--0------2------1-2------|
B|--0/2-2--3------3-------3-0----2--|--0/2-2--3------3-2--2---|
G|---------2----2-------------2--2--|---------2----2------2---|
D|---------0--4------------------2--|---------0--4--------2---|
A|-------------------------------0--|---------------------0---|
E|----------------------------------|-------------------------|


Este es el segundo

Primera parte:                            Segunda Parte

e|--0------2--------2----5------------|--0------2------1-2--------|
B|--0/2-2--3------3----5---5-3/2-0h2--|--0/2-2--3------3-2--2-----|
G|---------2----2---------------------|---------2----2------2-----|
D|---------0--4-----------------------|---------0--4--------2-----|
A|------------------------------------|---------------------0-----|
E|------------------------------------|---------------------------|


ARPEGIO:

Con A                Con D

e|-------------------|------2--------2---|
B|------2--------2---|------3--------3---|
G|------2--------2---|----2--------2-----|
D|----2--------2-----|--0------0-0-------|
A|--0------0-0-------|-------------------|
E|-------------------|-------------------|


Con E                 Con F#m

e|-------------------|--------------------|
B|------0--------0---|------2--------2----|
G|------1--------1---|------2--------2----|
D|----2--------2-----|----4--------4------|
A|-------------------|--------------------|
E|--0------0-0-------|--2------2-2--------|


A
Me contaron de Romeo y Julieta y pense

que hermoso cuento
                             D
y ahora resulta que es mas grande y mas bello
                           A
esto, esto que por ti yo siento

              D
Cruzaré los montes, los ríos, los valles,
              A
por irte a encontrar

                    D|------------|
                    A|--2h4-2-0---|
                    E|------------|

             D
salvaría tormentas, ciclones, dragones
       A
sin exagerar.

                    D|------------|
                    A|--4-2-0-0---|
                    E|------------|




             D                   E
Por poder mirarme en tus ojos bonitos
             F#m
y vivir la gloria de estar a tu lado
                  E
porque en mí ya siento que te necesito
                D  A
que me he enamorado.

             D                   E
Por poder mirarme en tus ojos bonitos
             F#m
y vivir la gloria de estar a tu lado
                  E
porque en mí ya siento que te necesito
           D  A
eso y más haré.


SE VUELVE A TOCAR EL INTRO QUE ESCOGISTE

          D
Por asegurar la sonrisa de tu alma
              A
buscando equidad,
               D
yo podría empeñar lo más caro que tengo
                A
que es mi libertad.
              D                     E
y sería un honor ay amor ser tu esclavo
             F#m
sería tu juguete por mi voluntad
               E
y si un día glorioso en tus brazos acabo
           A
Qué felicidad.

               D                     E
Si sería un honor ay amor ser tu esclavo
             F#m
sería tu juguete por mi voluntad
                                     E
y si un día glorioso en tus brazos acabo
           A
qué felicidad.


SE VUELVE A TOCAR EL INTRO QUE ESCOGISTE
PERO LA SEGUNDA PARTE UN POCO MAS LENTA.



Cualquier duda este es mi correo manuueel_ctrm.13.07@live.com.mx



Esta va dedicada para la niña mas hermosa del mundo
TE AMO  GÉNESIS!!!!!!
Versión 2 - Eso y más (Tablatura para guitarra (TAB))
Bueno pues eh visto todas las versiones aqui y ninguna tiene bien el intro
y encontre un tutorial y me parecio muy bueno asi que decidi
tomar el tiempo para transcribirla espero les ayude! los acordes
ya estaban aqui y fueron subidos por Gabriel Alejandro Aguillon Murillo
(gaam2705@hotmail.com)

Intro:

e|---0-----0------2-------------5----5----------------------|
B|---0/2---0------3--------3----5/7--5---5--3--2--0/2-------|
G|----------------2------2---------------6--4--2--2---------|
D|---------------------4--------------------------2---------|
A|----------------------------------------------------------|
E|----------------------------------------------------------|

e|---0-----0------2--------2-0---0-----|
B|---0/2---0------3--------3-----2-----|
G|----------------2------2-------2-----|
D|---------------------4---------2-----|
A|-------------------------------0-----|
E|-------------------------------------|


       A
Me contaron de Romeo y Julieta y pense

que hermoso cuento
                             D
y ahora resulta que es mas grande mas bello esto
                      A
esto que por ti yo siento.

             D
Cruzaré los montes, los ríos, los valles,
              A
por irte a encontrar         D|---------------------------------------|
                             A|--2/4---2--0--2--4-----2-0-------------|
                             E|---------------------------------------|
             D
salvaría tormentas, ciclones, dragones
        A
sin exagerar.                D|----------------------|
                             A|--2/4--2--0--2p0------|
                             E|----------------------|


             D                   E
Por poder mirarme en tus ojos bonitos
             F#m
y vivir la gloria de estar a tu lado
                  E
porque en mí ya siento que te necesito
                D  A
que me he enamorado.

             D                   E
Por poder mirarme en tus ojos bonitos
             F#m
y vivir la gloria de estar a tu lado
                  E
porque en mí ya siento que te necesito
           D  A
eso y más haré.

...Se toca el intro igual que al principio....

          D
Por asegurar la sonrisa de tu alma
              A
buscando equidad,
               D
yo podría empeñar lo más caro que tengo
                A
que es mi libertad.
              D                     E
y sería un honor ay amor ser tu esclavo
             F#m
sería tu juguete por mi voluntad
               E
y si un día glorioso en tus brazos acabo
           D A
Qué felicidad.

               D                     E
Si sería un honor ay amor ser tu esclavo
             F#m
sería tu juguete por mi voluntad
                                     E
y si un día glorioso en tus brazos acabo
           D  A
qué felicidad.
Versión 3 - Eso y más (Tablatura para guitarra (TAB))
 hola, espero que les sirba esta transcripcion,
ya que es la primera, que hago para la cuerda.

========= hecha por: andres, D =============


      INTRO

|------0-----0------2---------------2---0--------------0----|
|------0/2---0------3------------3---------2----0------2----|
|-------------------2--------22--------------------2---2----|
|------------------------------------------------------2----|
|------------------------------------------------------0----|
|-----------------------------------------------------------|




|------0-----0------2---------------------0------|
|------0/2---0------3------------7--------2------|
|-------------------2------------7---6----2------|
|----------------------------77-----------2------|
|-----------------------------------------0------|
|------------------------------------------------|


Arpegiado

HABLADO:
A
Me contaron de Romeo y Julieta y pensé
F#m
que hermoso cuento
        D
y ahora resulta que es mas grande que mas bello esto
 E
esto  que por ti yo siento

       D
Cruzaré los montes, los ríos, los valles,
                 A
por irte a encontrar                bajo #1
                      g|-----------------------------------------------|
                      a|-----2----h4--------2---0------------2---0-----|
                      e|-----------------------------------------------|
     D
salvaría tormentas, ciclones, dragones
          A
                        bajo #2
sin exagerar.   g|-------------------------|
                a|---4--2--0-----0---------|
                e|-------------------------|

            D                  E
Por poder mirarme en tus ojos bonitos
            A                   F#m
y vivir la gloria de estar a tu lado
                 Bm             E
porque en mí ya siento que te necesito
             D   A
que me he enamorado.

             D                  E
Por poder mirarme en tus ojos bonitos
            A                   F#m
y vivir la gloria de estar a tu lado
                  Bm             E
porque en mí ya siento que te necesito
             D
eso y más haré.


|------0-----0------2---------------2---0--------------0----|
|------0/2---0------3------------3---------2----0------2----|
|-------------------2--------22--------------------2---2----|
|------------------------------------------------------2----|
|------------------------------------------------------0----|
|-----------------------------------------------------------|




|------0-----0------2---------------------0------|
|------0/2---0------3------------7--------2------|
|-------------------2------------7---6----2------|
|----------------------------77-----------2------|
|-----------------------------------------0------|
|------------------------------------------------|

          D
Por asegurar la sonrisa de tu alma
             A
buscando equidad,
              D
yo podría empeñar lo más caro que tengo
                A
que es mi libertad
             D                   E
y sería un honor ay amor ser tu esclavo
            A                F#m
sería tu juguete por mi voluntad
                Bm                   E
y si un día glorioso en tus brazos acabo
           D
Qué felicidad

              D                   E
Si sería un honor ay amor ser tu esclavo
            A               F#m
sería tu juguete por mi voluntad
                Bm                  E
y si un día glorioso en tus brazos acabo
           D
qué felicidad



|------0-----0------2---------------2---0--------------0----|
|------0/2---0------3------------3---------2----0------2----|
|-------------------2--------22--------------------2---2----|
|------------------------------------------------------2----|
|------------------------------------------------------0----|
|-----------------------------------------------------------|




|------0-----0------2-------------------------------------------0|
|------0/2---0------3--------------------7--------------------2--|
|-------------------2--------------------7------6-----------2----|
|----------------------------7-----7----------------------2------|
|-------------------------------------------------------0--------|
|----------------------------------------------------------------|




          bajo #1
|-----------------------------------------------|
|-----------------------------------------------|
|-----------------------------------------------|
|-----------------------------------------------|
|-----2----h4--------2---0------------2---0-----|
|-----------------------------------------------|




         bajo #2
|-----------------------------------------|
|-----------------------------------------|
|-----------------------------------------|
|-----------------------------------------|
|-----4-2--0---0--------------------------|
|-----------------------------------------|
Versión 4 - Eso y más (Tablatura para guitarra (TAB))
Hola es la primera cancion ke subo espero les sirvaa!!

Eso y mas - Joan Sebastián
Intro:
                     D                          A
e|-0---0---2-----------0h1p0----------0---0---0---2--|
B|-0h2-0---3--------3--------0h2--0---2---0h2-0---3--|
G|---------2------2-------------------2-----------2--|
D|---------0----4---------------------2-----------0--|
A|---------------------------------------------------|
E|---------------------------------------------------|

e|-------------0------------------|
B|------3--2---2------------------|
G|----2--------2------------------|
D|--4----------2------------------|
A|------------------4-2-0---0-2-0-|
E|------------------------2-------|

             D
Cruzaré los montes, los ríos, los valles,
              A
por irte a encontrar         D|------------------------|
                             A|--2/42--0--2--0---------|
                             E|------------------------|
             D
salvaría tormentas, ciclones, dragones
        A
sin exagerar.                D|----------------------|
                             A|--4--2--0--2-0--------|
                             E|----------2-----------|

             D                   E
Por poder mirarme en tus ojos bonitos
         A                   F#m
y vivir la gloria de estar a tu lado
                  Bm               E
porque en mí ya siento que te necesito
                D  A
que me he enamorado.

             D                   E
Por poder mirarme en tus ojos bonitos
         A                    F#m
y vivir la gloria de estar a tu lado
                  Bm               E
porque en mí ya siento que te necesito
           A
eso y más haré.

..::: Entra el intro:::..

          D
Por asegurar la sonrisa de tu alma
              A
buscando equidad,            D|------------------------|
                             A|--2/42--0--2--0---------|
                             E|------------------------|


               D
yo podría empeñar lo más caro que tengo
                A
que es mi libertad.          D|----------------------|
                             A|--4--2--0--2-0--------|
                             E|----------2-----------|





              D                     E
y sería un honor ay amor ser tu esclavo
          A                F#m
sería tu juguete por mi voluntad

                  Bm                  E
y si un día glorioso en tus brazos acabo
           A
Qué felicidad.

               D                     E
Si sería un honor ay amor ser tu esclavo
          A                 F#m
sería tu juguete por mi voluntad
                  Bm                  E
y si un día glorioso en tus brazos acabo
           A
qué felicidad.

Final
e|-0---0---2-----------0h1p0----------0---0---0---2--|
B|-0h2-0---3--------3--------0h2--0---2---0h2-0---3--|
G|---------2------2-------------------2-----------2--|
D|---------0----4---------------------2-----------0--|
A|---------------------------------------------------|
E|---------------------------------------------------|

e|----------------0--0--------------|
B|------3--2-----2---2--------------|
G|----2---------2----2--------------|
D|--4----------2-----2--------------|
A|------------0---------------------|
E|----------------------------------|
Versión 5 - Eso y más (Letra y acordes)
              D
Cruzaré los montes, los ríos, los valles,
              A
por irte a encontrar
             D
salvaría tormentas, ciclones, dragones
        A
sin exagerar.

             D                   E
Por poder mirarme en tus ojos bonitos
              A                 F#m
y vivir la gloria de estar a tu lado
                 Bm              E
porque en mí ya siento que te necesito
                D  A
que me he enamorado.

             D                   E
Por poder mirarme en tus ojos bonitos
             A                  F#m
y vivir la gloria de estar a tu lado
                  Bm             E
porque en mí ya siento que te necesito
           A
eso y más haré.

Intro:

          D
Por asegurar la sonrisa de tu alma
              A
buscando equidad,
               D
yo podría empeñar lo más caro que tengo
                A
que es mi libertad.
              D                     E
y sería un honor ay amor ser tu esclavo
             A              F#m
sería tu juguete por mi voluntad
               Bm                    E
y si un día glorioso en tus brazos acabo
           A
Qué felicidad.

               D                     E
Si sería un honor ay amor ser tu esclavo
             A              F#m
sería tu juguete por mi voluntad
               Bm                    E
y si un día glorioso en tus brazos acabo
           A
qué felicidad.
Versión 6 - Eso y más (Letra y acordes)
Hablado:
       A
Me contaron de Romeo y Julieta y pense

que hermoso cuento
                             D
y ahora resulta que es mas grande mas bello esto
                      A
esto que por ti yo siento.

             D
Cruzaré los montes, los ríos, los valles,
              A
por irte a encontrar
             D
salvaría tormentas, ciclones, dragones
        A
sin exagerar.

             D                   E
Por poder mirarme en tus ojos bonitos
             F#m
y vivir la gloria de estar a tu lado
                  E
porque en mí ya siento que te necesito
                D  A
que me he enamorado.

             D                   E
Por poder mirarme en tus ojos bonitos
             F#m
y vivir la gloria de estar a tu lado
                  E
porque en mí ya siento que te necesito
           D  A
eso y más haré.

...Se toca el intro igual que al principio....

          D
Por asegurar la sonrisa de tu alma
              A
buscando equidad,
               D
yo podría empeñar lo más caro que tengo
                A
que es mi libertad.
              D                     E
y sería un honor ay amor ser tu esclavo
             F#m
sería tu juguete por mi voluntad
               E
y si un día glorioso en tus brazos acabo
           D A
Qué felicidad.

               D                     E
Si sería un honor ay amor ser tu esclavo
             F#m
sería tu juguete por mi voluntad
                                     E
y si un día glorioso en tus brazos acabo
           D  A
qué felicidad.


pues aki sta esta rola tan pedida y con
los acordes originales,si no creen pruebenlos.
Mas adelante les mando las tablaturas.

El material contenido en esta página es para exclusivo uso privado y con propósito meramente educativo, se prohibe su reproducción y uso con fines comerciales