Neurona

Tabs, letra y acordes de 'Neurona' por I.R.A.

Versiones disponibles: Tablatura para guitarra (TAB) - Tablatura para guitarra (TAB) - Letra y acordes - Tablatura para bajo (bass tab)

INTRO

e---------------
B---------------
G-5----7--------
D-5----7----5---
A-3----5----5---
E-----------3---
"SIN PENSAR SIN PENSAR ESTE MUNDO VA A ACABAR"

e---------------
B---------------
G-5----7--------
D-5----7----5---
A-3----5----5---
E-----------3---
"SIN PENSAR SIN PENSAR QUIERO GRITAR"

e-------------------
B-------------------
G-5-----7-----------
D-5-----7----5-4-2--
A-3-----5----5-4-2--
E------------3-2-0--
"SIN PENSAR SIN PENSAR ESTE MUNDO ESTA PERDIDO"

e------------------
B------------------
G--5---7-----------
D--5---7---55555---
A--3---5---55555---
E----------33333---
"SIN PENSAR SIN PENSAR LA LA LA LA LA HEY"

PUENTE

e--------------------
B--------------------
G------------------------------------
D------77---------99-77------77------      X 1
A-55-5-55-77-99-9-77-55-55-5-55-77-99-9-77-
E-33-3----55-77-7-------33-3----55-77-7-55-


verse 1

e--------------------
B--------------------
G------------------------------------
D------77---------99-77------77------      X 2
A-55-5-55-77-99-9-77-55-55-5-55-77-99-9-77-
E-33-3----55-77-7-------33-3----55-77-7-55-

"ME QUEDA UNA NEURONA DE TANTO HABER PENSADO
ES COSA DEL PASADO PARA OLVIDAR
Y YA NO ES CULPA MIA QUE SEA UNA SOLA
ME QUEDA UNA NEURONA
LA VOY A APROBECHAR"

CORO

e---------------
B---------------
G-5----7--------
D-5-X5-7-X5-5---
A-3----5----5-X10-
E-----------3---
"SIN PENSAR SIN PENSAR ESTE MUNDO VA A ACABAR"

e---------------
B---------------
G-5----7--------
D-5-X5-7-X5-5---
A-3----5----5X10-
E-----------3---
"SIN PENSAR SIN PENSAR QUIERO GRITAR"

e-------------------
B-------------------
G-5-----7-----------
D-5-X5--7-X5-5----4----2--
A-3-----5----5-X2-4-X2-2-X4-
E------------3----2----0--
"SIN PENSAR SIN PENSAR ESTE MUNDO ESTA PERDIDO"

e-----------------
B-----------------
G--5----7---------
D--5-X5-7-X5--5---
A--3----5-----5-X5-
E-------------3---
"SIN PENSAR SIN PENSAR LA LA LA LA LA HEY"


PUENTE

e--------------------
B--------------------
G------------------------------------
D------77---------99-77------77------      X 1
A-55-5-55-77-99-9-77-55-55-5-55-77-99-9-77-
E-33-3----55-77-7-------33-3----55-77-7-55-


VERSE 2
e--------------------
B--------------------
G------------------------------------
D------77---------99-77------77------      X 2
A-55-5-55-77-99-9-77-55-55-5-55-77-99-9-77-
E-33-3----55-77-7-------33-3----55-77-7-55-

"ME QUEDA UNA NEURONA
ES ALGO DESCUIDADA PORQUE NO ME RESPONDE
PARA PENSAR Y YA NO ES CULPA MIA
QUE SEA UNA SOLA
ME QUEDA UNA NEURONA
LA VOY A APROBECHAR"


CORO

e---------------
B---------------
G-5----7--------
D-5-X5-7-X5-5---
A-3----5----5-X10-
E-----------3---
"SIN PENSAR SIN PENSAR ESTE MUNDO VA A ACABAR"

e---------------
B---------------
G-5----7--------
D-5-X5-7-X5-5---
A-3----5----5X10-
E-----------3---
"SIN PENSAR SIN PENSAR QUIERO GRITAR"

e-------------------
B-------------------
G-5-----7-----------
D-5-X5--7-X5-5----4----2--
A-3-----5----5-X2-4-X2-2-X4-
E------------3----2----0--
"SIN PENSAR SIN PENSAR ESTE MUNDO ESTA PERDIDO"

e-----------------
B-----------------
G--5----7---------
D--5-X5-7-X5--5---
A--3----5-----5-X5-
E-------------3---
"SIN PENSAR SIN PENSAR LA LA LA LA LA HEY"
Versión 2 - Neurona (Tablatura para guitarra (TAB))
Trascripcion po Mauricio  PARRA
ruffuz666@hotmail.com
el poder del punk
**********************************************************************

INTRO:
E|-------------------------------------------------|
B|-------------------------------------------------|
G|-5-5-5---------7-7-7-----------------------------|
D|-5-5-5---------7-7-7---------5-5-5---------2-2-2-|
A|-3-3-3---------5-5-5---------5-5-5---------2-2-2-|
E|-----------------------------3-3-3---------0-0-0-|

Sin pensar     sin pensar    este mundo    va acabar


|-----------------------------------------------|
|-----------------------------------------------|
|-5-5-5--------7-7-7----------------------------|
|-5-5-5--------7-7-7--------5-5-5-5------5/3--5-|
|-3-3-3--------5-5-5--------5-5-5-5------5/3--5-|
|---------------------------3-3-3-3------3/1--3-|

Sin pensar    sin pensar    quiero       gritar


|---------------------------------------------------|
|---------------------------------------------------|
|-5-5-5-------7-7-7-------12-12-12-12----10-10--7-7-|
|-5-5-5-------7-7-7-------12-12-12-12----10-10--7-7-|
|-3-3-3-------5-5-5-------10-10-10-10----8--8---5-5-|
|---------------------------------------------------|

Sin pensar   sin pensar   este mundo   tan   perdido

|-----------------------------------------------|
|-----------------------------------------------|
|-5-5-5--------7-7-7----------------------------|
|-5-5-5--------7-7-7-------5-5-5-5-------5/3--5-|
|-3-3-3--------5-5-5-------5-5-5-5-------5/3--5-|
|--------------------------3-3-3-3-------3/1--3-|

Sin pensar    sin pensar   nanananana     je!



INTERMEDIO
E|-------------------------------------|
B|---------7-7----------------9-9------|
G|-5-5---5-7-7---7-7--9-9---9-9-9--9-9-|
D|-5-5---5-5-5---7-7--9-9---9-7-7--9-9-|
A|-3-3---3-------5-5--7-7---7------7-7-|
E|-------------------------------------|



|----------------------------------|
|---------7-7----------------------|
|-5-5---5-7-7---7-7--9-9---9-9-9-9-|
|-5-5---5-5-5---7-7--9-9---9-9-9-9-|
|-3-3---3-------5-5--7-7---7-7-7-7-|
|----------------------------------|


CORO A
E|---------------------------------------------|
B|---------------------------------------------|
G|--------------7-7-----------------9-9--------|
D|-5-5-------5--7-7---7-7----9-9---9--9-9--9-9-|
A|-5-5-------5--5-5---7-7----9-9---9--7-7--9-9-|
E|-3-3-------3--------5-5----7-7---7-------7-7-|

  Me queda  una  neurona    de tanto aver pensado

CORO B
|------------------------------------------|
|------------------------------------------|
|--------------7-7-------------------------|
|-5-5-------5--7-7---7-7-----9-9---9-9-9-9-|
|-5-5-------5--5-5---7-7-----9-9---9-9-9-9-|
|-3-3-------3--------5-5-----7-7---7-7-7-7-|

  LA llevo  en MI cabeza     para penzar

CORO A
|---------------------------------------------|
|---------------------------------------------|
|-------------7-7--------------------9-9------|
|-5-5------5--7-7---7-7-----9-9---9--9-9--9-9-|
|-5-5------5--5-5---7-7-----9-9---9--7-7--9-9-|
|-3-3------3--------5-5-----7-7---7-------7-7-|

  A caso es culpa mia       que sea un a sola

CORO B
|-----------------------------------------|
|-----------------------------------------|
|-------------7-7-------------------------|
|-5-5------5--7-7---7-7-----9-9---9-9-9-9-|
|-5-5------5--5-5---7-7-----9-9---9-9-9-9-|
|-3-3------3--------5-5-----7-7---7-7-7-7-|

   Me queda una neurona     la boy aprovechar!


REPETIR INTRO
REPETIR INTERMEDIO


CORO A

E|----------------------------------------------|
B|----------------------------------------------|
G|------------7-7----------------------9-9------|
D|-5-5-----5--7-7---7-7-------9-9---9--9-9--9-9-|
A|-5-5-----5--5-5---7-7-------9-9---9--7-7--9-9-|
E|-3-3-----3--------5-5-------7-7---7-------7-7-|

   Me queda una neurona      es algo descuidada

CORO B
|------------------------------------------|
|------------------------------------------|
|------------7-7---------------------------|
|-5-5-----5--7-7---7-7-------9-9---9-9-9-9-|
|-5-5-----5--5-5---7-7-------9-9---9-9-9-9-|
|-3-3-----3--------5-5-------7-7---7-7-7-7-|

   Ella no me responde     para penzar


|----------------------------------------------|
|----------------------------------------------|
|------------7-7----------------------9-9------|
|-5-5-----5--7-7---7-7-------9-9---9--9-9--9-9-|
|-5-5-----5--5-5---7-7-------9-9---9--7-7--9-9-|
|-3-3-----3--------5-5-------7-7---7-------7-7-|

   A caso es culpa mia      que sea una sola


|---------------------------------------|
|---------------------------------------|
|-----------7-7-------------------------|
|-5-5----5--7-7---7-7-----9-9---9-9-9-9-|
|-5-5----5--5-5---7-7-----9-9---9-9-9-9-|
|-3-3----3--------5-5-----7-7---7-7-7-7-|

  Me queda una neurona    la voy aprovechar!


REPITE INTRO


Dudas y comentarios contactemen a ruffuz666@hotmail.com
esta un 99.9% buena
Apollen el punk nacional sacada por ruffuz
Versión 3 - Neurona (Letra y acordes)
ESTA VERCION APARECE EN EL DISCO DE CRONICAS DE UNA DECADA PODRIDA
Y HAY PARTES QUE DIFIEREN A LA QUE ESTA EN EL DE EPIDEMIA
Y SI ESTA MAL ESCRIBANME AL CORREO PARA CORREGIRLA Y QUE QUEDE PERFECTA

INTRO:
E|------------------------------------|
B|------------------------------------|
G|------77-------9977-----77----------|
D|-55--5777799--9997755--5777799-99-7-| X2
A|-55--5557799--9775555--5557799-99-7-|
E|-33--3--5577--7----33--3--5577-77-5-|

Gm5            D5 A5
Me queda una neurona
B5             C5  D5
de tanto haber pensado
Gm5            D5 A5
ya es cosa del pasado
B5          A5
para olvidar
Gm5           D5 A5
ha caso es culpa mia
B5           E5 D5
que sea una sola
Gm5           D5 A5
Me queda una neurona
B5
la voy a aprovechar

CORO:
C5         D5
Sin pensar sin pensar
A5         Gm5
este mundo va a acabar
C5         D5
Sin pensar sin pensar
A5
quiero gritar
C5         D5
Sin pensar sin pensar
G5   F#5   E5
este mundo esta perdido
C5         D5
Sin pensar sin pensar
A5
LA LA LA LA LA laaa

       NEURONA          NEURONA         NEURONA        NEURONA
E|------------------------------------------------------------------|
B|------------------------------------------------------------------|
G|-55555-----------55555-----------55555-----------55555------------|
D|-55555------7777555555------7777555555------7777555555------77775-|
A|-33333------7777533333------7777533333------7777533333------77775-|
E|------------55553-----------55553-----------55553-----------55553-|

INTRO:
E|------------------------------------|
B|------------------------------------|
G|------77-------9977-----77----------|
D|-55--5777799--9997755--5777799-99-7-|
A|-55--5557799--9775555--5557799-99-7-|
E|-33--3--5577--7----33--3--5577-77-5-|

Gm5            D5 A5
Me queda una neurona
B5             C5  D5
que es algo descuidada
Gm5            D5 A5
porque no me responde
B5         A5
para pensar
Gm5            D5 A5
ha caso es culpa mia
B5          E5 D5
que sea una sola
Gm5            D5 A5
Me queda una neurona
B5
la voy a aprovechar

CORO:
C5         D5
Sin pensar sin pensar
A5         Gm5
este mundo va a acabar
C5         D5
Sin pensar sin pensar
A5
quiero gritar
C5         D5
Sin pensar sin pensar
G5   F#5   E5
este mundo esta perdido
C5         D5
Sin pensar sin pensar
A5
LA LA LA LA LA laaa

      NEURONA          NEURONA         NEURONA        NEURONA
E|------------------------------------------------------------------|
B|------------------------------------------------------------------|
G|-55555-----------55555-----------55555-----------55555------------|
D|-55555------7777555555------7777555555------7777555555------77775-|
A|-33333------7777533333------7777533333------7777533333------77775-|
E|------------55553-----------55553-----------55553-----------55553-|

CORO:
C5         D5
Sin pensar sin pensar
A5         Gm5
este mundo va a acabar
C5         D5
Sin pensar sin pensar
A5
quiero gritar
C5         D5
Sin pensar sin pensar
G5   F#5   E5
este mundo esta perdido
C5         D5
Sin pensar sin pensar
A5~~
LAAAAAA

ACORDES:
E|----X----X----X----X----X----X----X----X---|
B|----X----X----X----X----X----X----X----X---|
G|----X----7----5----X----9----12---11---X---|
D|----7----7----5----9----9----12---11---5---|
A|----7----5----3----9----7----10---9----5---|
E|----5----X----X----7----X----X----X----3---|
      A5   D5   C5   B5   E5   G5  F#5  Gm5
Dudas, correcciones o comentarios al correo rockandres182@hotmail.com
Versión 4 - Neurona (Tablatura para bajo (bass tab))
INTRO:
G|------------------------------------|
D|------------------------------------| X2
A|------55-------7755-----55----------|
E|-55--5--5577--7----55--5--5577-77-5-|

VERSO 1: Me queda una neurona de tanto haber pensado...
G|-------------------------------------|
D|-------------------------------------|
A|------55---------3355-----55---------|
E|-55555--557777777----55555--55777777-|

VERSO 2: Acaso es culpa mía me queda una sola....
G|-------------------------------------|
D|-------------------------------------|
A|------55---------7755-----55---------|
E|-55555--557777777----55555--55777777-|

CORO:SIN PENSAR SIN PENSAR – ESTE MUNDO VA A ACABAR...
G|------------------------------------------|
D|------------------------------------------|
A|-5555-7777------------5555-7777-----------|
E|-----------77775555-------------77777777--|

SIN PENSAR SIN PENSAR – ESTE MUNDO ESTÁ PERDIDO...
G|--------------------------------------------|
D|--------------------------------------------|
A|-5555-7777-10109-9-7777--5555-7777----------|
E|-----------------------------------77777775-|

       NEURONA          NEURONA         NEURONA        NEURONA
G|------------------------------------------------------------------|
D|------------------------------------------------------------------|
A|-55555-----------55555-----------55555-----------55555------------|
E|------------77777-----------77777-----------77777-----------77777-|

INTRO:
G|------------------------------------|
D|------------------------------------| X2
A|------55-------7755-----55----------|
E|-55--5--5577--7----55--5--5577-77-5-|

VERSO 1: Me queda una neurona de tanto haber pensado...
G|-------------------------------------|
D|-------------------------------------|
A|------55---------3355-----55---------|
E|-55555--557777777----55555--55777777-|

VERSO 2: Acaso es culpa mía me queda una sola....
G|-------------------------------------|
D|-------------------------------------|
A|------55---------7755-----55---------|
E|-55555--557777777----55555--55777777-|

CORO:SIN PENSAR SIN PENSAR – ESTE MUNDO VA A ACABAR...
G|------------------------------------------|
D|------------------------------------------|
A|-5555-7777------------5555-7777-----------|
E|-----------77775555-------------77777777--|

SIN PENSAR SIN PENSAR – ESTE MUNDO ESTÁ PERDIDO...
G|--------------------------------------------|
D|--------------------------------------------|
A|-5555-7777-10109-9-7777--5555-7777----------|
E|-----------------------------------77777775-|

       NEURONA          NEURONA         NEURONA        NEURONA
G|------------------------------------------------------------------|
D|------------------------------------------------------------------|
A|-55555-----------55555-----------55555-----------55555------------|
E|------------77777-----------77777-----------77777-----------77777-|

CORO:SIN PENSAR SIN PENSAR – ESTE MUNDO VA A ACABAR...
G|------------------------------------------|
D|------------------------------------------|
A|-5555-7777------------5555-7777-----------|
E|-----------77775555-------------77777777--|

SIN PENSAR SIN PENSAR – ESTE MUNDO ESTÁ PERDIDO...
G|--------------------------------------------|
D|--------------------------------------------|
A|-5555-7777-10109-9-7777--5555-7777----------|
E|-----------------------------------77777775-|

Dudas, correcciones o comentarios al correo rockandres182@hotmail.com

El material contenido en esta página es para exclusivo uso privado y con propósito meramente educativo, se prohibe su reproducción y uso con fines comerciales