Abandono

Tabs, letra y acordes de 'Abandono' por I.R.A.

Versiones disponibles: Tablatura para guitarra (TAB) - Letra y acordes

Intro:

4|--7-7-----------------7-7----------------------------
5|5-----X2-----7-7----5--------7-7-----5-5-------------
6|-----------5---------------5-------3-----------------

4|--7-7----------------------7-7-----------------7-7---
5|5-----X2----7-7----7-7---5-----X2----7-7-----5----X5-
6|----------5------5-----------------5-----X2----------

.......................................................


4|--7-7-------------------
5|5---------------7-7-----
6|--------------5---------

A gritos ellos le pedían

4|--7-7-------------------|
5|5---------------5-5-----|
6|--------------3---------|

Que no los dejara solos y olvidados

4|--7-7--------------------7-7-----------------7-7----|
5|5---------------7-7----5-----X2----7-7-----5-----X5-|
6|--------------5------------------5-----X2-----------|


Ahora,    en medio de nada            seres atrapados


Se repite lo mismo(...)

Las caras de tristeza y sucias

Mirando a lo lejos, pensando que harían

Que seres serian mañana no le llames vida

..........................................................

4|----------7-7-------/-----------------------------------|
5|--5-5---5------7-7-/al final---7-7------6-6-------5-5---|
6|3------------5----/----------5----x1--4-----x1--3----x1-|

No puedo comprender por qué deben vivir

Maltratados en casa y luego en las calles

Acaso crees que ellos soñaban ser así



Un destino tan cruel no lo merece nadie(sin la parte final)

Punteo:(corregido)

4|---777---------------777--------------777----------
5|555---5-----777---555---5----555---555---5----777--
6|---------555---5----------333---3----------555---7-


4|-quinta----7-7------------7-7--|
5|---------5--------7-7---5------|
6|----------------5--------------|

....................................................

4|--7-7-------------------
5|5---------------7-7-----
6|--------------5---------

Una situación aguda y fría

4|--7-7-------------------|
5|5---------------5-5-----|
6|--------------3---------|

Intenso dolor les fue causado

4|--7-7-------------7-7-----------------7-7----|
5|5--------7-7----5-----X2----7-7-----5-----X5-|
6|-------5------------------5-----X2-----------|

Todo termino por tonterías

(se repite de nuevo)
Es un abandono a los principios
Poco es que te tilden de cobarde
Tal vez morirás arrepentido
.......................................................

4|----------7-7------/---------------------------------|
5|--5-5---5------7-7/al final--7-7------6-6-------5-5--|
6|3------------5---/---------5----x1--4-----x1--3----x1|


Ni me lo preguntes a mí que puedo decir
Lo que yo digo nunca le ha importado a nadie
No te lo preguntes a ti que puedes decir

4|------------7-7---------/------------------7-7----|
5|----5-5---5--------7-7-/-outro---7-7-----5----x1--|
6|--3--------------5----/--------5-----x1-----------|

Lo que tú dices nunca le ha importado a nadie (...)



Aunke la otra no este mal,
esta version se asimila mas a la cancion
Versión 2 - Abandono (Letra y acordes)
|============|
|Abandono    |  tabulada por Cometin
|Por I.R.A.  |  www.LaIzkieda.tk3.net
|Epidemia    |  CapitanFrutonita@gmail.com
|============|

Ecualisaxion:
En general I.R.A. kuadra el ekualisador similar a este            w
La distorxion en 7,el treble en 8,el mid en 6,el bass en 2       w
Afinacion: EbGDAE                                                 w
Es mas recomendable tokarla en kintas                             .
                                                                  L
Intro:                                                           A
D A D A/G    D A   Rapido(DDDD AA D)                              i
                                                                 z
  D                  A                                           k
A gritos ellos le pedían                                          i
               D             A G                                  E
Que no los dejara solos y olvidados                               r
  D                  A                D A D                       D
Ahora, en medio de nada seres atrapados                           a
     D                   A                                        .
Las caras de tristeza y sucias                                    t
                D              A  G                                k
Mirando a lo lejos, pensando que harían                           3
    D                  A                D A D                      .
Que seres serian mañana no le llames vida                           n
                                                                   E
                                                                    t
 G               D              A
No puedo comprender por qué deben vivir
  G               D              A
Maltratados en casa y luego en las calles
 G               D              A
Acaso crees que ellos soñaban ser así
   G               D              A
Un destino tan cruel no lo merece nadie

Punteo:
1|-----------------------------------------------------------------------|
2|-----------------------------------------------------------------------|
3|-----------------------------------------------------------------------|
4|------7-7-7----------------------7-7-7---------------7-7-7-------7-7-7-|
5|5-5-5------5------7-7-7----5-5-5------5-------5-5-5--5-5-5-7-7-7-5-5-5-|
6|-------------5-5-5------5----------------3-3-3------3------5-5-5-------|

Una situación aguda y fría
Intenso dolor les fue causado
Todo termino por tonterías
Es un abandono a los principios
Poco es que te tilden de cobarde
Tal vez morirás arrepentido

Ni me lo preguntes a mí que puedo decir
Lo que yo digo nunca le ha importado a nadie
No te lo preguntes a ti que puedes decir
Lo que tú dices nunca le ha importado a nadie


           Eso es todo,si la tab tiene errores o solo te apetece escribir
                   lo puedes hacer a capitanfrutonita@gmail.com
                       Visite Mi site www.LaIzkierda.tk3.net
                                                      Cometin_

El material contenido en esta página es para exclusivo uso privado y con propósito meramente educativo, se prohibe su reproducción y uso con fines comerciales