Ya no quiero

Tabs, letra y acordes de 'Ya no quiero' por Jesse y Joy

Versiones disponibles: Tablatura para guitarra (TAB) - Letra y acordes - Letra y acordes - Letra y acordes - Tablatura para guitarra (TAB) - Tablatura para guitarra (TAB)

Hola, alguien quiso corregir los errores de mi tab,
pero la dejó peor, por esto me gustaría que volvieran
a poner la mía, les mando opciones para cambiar los
acordes que están mal:

Gracias a José Ramón Benitez Eguiluz, que fue el que me
mandó estas opciones por mail.

Los B del coro los pueden hacer en septima: B7
Los C de los versos los pueden hacer en novena: C9
Los Cm pueden hacer en menor septima: Cm7
Los re del principio son novenos e invertidos con bajo
en fa sostenido: D9/F#

Aunque este ùltimo no me acaba de convencer, por que incluso,
el D normal se adorna con Dsus4, pero bueno, ahí como vean,
si tienen dudas con estos acordes, me dicen en mi mail, va?

Ah, por cierto, el solo lo corregì y ya se oye mejor

Intro:

  G       C  Em      D
6:------------|-----------|
5:------------|-----------|
4:------------|-----------|
g:------------|-----------|
b:---3-----3--|---3-----3-|
e:-3---3-3----|-3---5-5---|

  G       C  Em      D
6:------------|-----------|---|
5:------------|-----------|---|
4:------------|-----------|---|
g:------------|-----------|---|
b:---3-----3--|---3-----3-|---|
e:-3---3-3----|-3---5-5---|-3-|

G        C            Em    D
Tantas bellas palabras
     G       C Em   D
que me decías
G        C       Em   D
tonta y enamorada
    G        C   Em   D
ya me tenias

G     C          Em   D
Tus caricias vacías
 G        C   Em   D
me las creía
G       C            Em   D
de tus besos y abrazos
    G    C   Em   D
me derretía.

C
Me engañaste y dejaste
                            G
Lastimaste a mi pobre corazón

Coro:
         B           C            F
YA NO QUIERO VER TÚ FOTO EN MI BURÓ
 G              B         C             F
VETE QUE YA TE TENGO OLVIDADO EN UN CAJÓN
   G           B             C
Y TODO ESTE TIEMPO TE HE MENTIDO
          Cm
PUES TUS BESOS NO SON LO MEJOR


  G       C  Em      D
6:------------|-----------|
5:------------|-----------|
4:------------|-----------|
g:------------|-----------|
b:---3-----3--|---3-----3-|
e:-3---3-3----|-3---5-5---|

  G       C  Em      D
6:------------|-----------|---|
5:------------|-----------|---|
4:------------|-----------|---|
g:------------|-----------|---|
b:---3-----3--|---3-----3-|---|
e:-3---3-3----|-3---5-5---|-3-|

G      C           Em   D
Me propuse olvidar
    G    C   Em   D
y madurar
G     C         Em D
Volveré a empezar
G              C   Em  D
y lo voy a lograr

C
Te dejé en el pasado
                          G
Has quedado olvidado corazón

Coro
         B           C            F
YA NO QUIERO VER TÚ FOTO EN MI BURÓ
 G              B         C             F
VETE QUE YA TE TENGO OLVIDADO EN UN CAJÓN
   G           B             C
Y TODO ESTE TIEMPO TE HE MENTIDO
          Cm
PUES TUS BESOS NO SON LO MEJOR

Solo:

  2:34                   2:38                       2:42
  Em                A     C                     B
6:-----------------------|-------------------------|--------------------|
5:-----------------------|-------------------------|--------------------|
4:-----------------------|-------------------------|--------------------|
g:-/9---9---------9-9--9-|-/9---9---------9-9-9/11-|--------------9-7/9-|
b:----8---8-----8-----8--|----8---8-----8----------|-------10-8-7-------|
e:----------6/7----------|----------6/7------------|-7-8-7--------------|

  2:43                    2:46
  Em                   A
6:-----------------------|----------------------|
5:-----------------------|----------------------|
4:-----------------------|----------------------|
g:-/9---9---------9-9--9-|----------------------|
b:----8---8-----8----8---|-8h10----8/10-10-10-10|
e:----------6/7----------|------7--8/10-10-10-10||


  2:48
  C                   B-B  - B-B  -  B-B
E:----------------------------------------|
A:----------------------------------------|
D:----------------------------------------|
g:-9---9-----------9----------------------|
b:---8---8---10-8----12-12---12-12---12-12|
e:---------7---------11-11---11-11---11-11|

                   G
No, no, no, no, nooooo....!!!!

Coro
         B           C            F
YA NO QUIERO VER TÚ FOTO EN MI BURÓ
 G              B         C             F
VETE QUE YA TE TENGO OLVIDADO EN UN CAJÓN
   G           B             C
Y TODO ESTE TIEMPO TE HE MENTIDO
          Cm
PUES TUS BESOS NO SON LO MEJOR

Está muy mejorada a la que mandè anteriormente,
espero y les guste y la califican por favor.
Dudas, correcciones, etc a mi mail.

Acordes de los Versos:

     654321
     EADgbe

 G:  320033 ó 355433
 C:  332010 ó 335553 o bien, C9
 C9: 335533
 Em: 022000
 D:  X00232

Acordes del coro:

     654321
     EADgbe

 G:  355433
 B:  224442 o bien, B7
 B7: 224242
 C:  335553
 F:  133211
 Cm: 335543 o bien, Cm7
 Cm7:335343
Versión 2 - Ya no quiero (Letra y acordes)
Nota: Las notas anteriores estavan masomenos pero
le acomode las notas k esta Yulissen no c acordava
y le mejore algunas otras y ps ahora suena mejor
escuchen la rola para k vean los tiempos y asi le
salga perfecto el tono va...

otra cosa el sus aka abajo les dejo como es
xq el robot no lo da oki...espero los gust


Mientras que se toca el solo con otra guitarra, se tocan
estos acordes en la lira acústica:

INTRO: G   C9    sus*   D  (x2)


G       C9     sus*    D
Tantas bellas palabras
     G       C9    sus*   D
que me decías
G        C9     sus*   D
tonta y enamorada
    G    C9     sus*   D
ya me tenias

G       C9    sus*   D
Tus caricias vacías
G       C9   sus*   D
me las creía
G       C9    sus*   D
de tus besos y abrazos
G       C9    sus*   D
me derretía.


Puente:

C
Me engañaste y dejaste
                   D            G
Lastimaste a mi pobre corazón


Coro
      B7            C
Ya no quiero ver tu foto en mi buró
G                B7         C
Vete que ya te tengo olvidado en un cajón
   G           B7              C
Y todo este tiempo te he mentido
           Cm
Pues tus besos no son lo mejor


INTRO:

G C9  sus D


G       C9    sus*   D
Me propuse olvidar
G       C9    sus*   D
y madurar
G       C9    sus*   D
Volveré a empezar
G       C9    sus*   D
y lo voy a lograr.


Puente 2:

C
Te dejé en el pasado
              D            G
Has quedado olvidado corazón

         B7         C
ya no quiero ver tu foto en mi buró
G                B7       C
vete que ya te tengo olvidado en un cajón
   G           B7           C
y todo este tiempo te he mentido
           Cm
pues tus besos no son lo mejor



Mientras está el solo con otra lira, tocar los siguientes
acordes cuando tocan Cm es pausado y cambia a B7 k es igual..
pero para k le allen mas escuchen la rola y veran mejor los
tiempos..

G B7 C
G B7 C   ....... Cm..(B7)x2


G         B7             C
ya no quiero ver tu foto en mi buró
G                B7         C
vete que ya te tengo olvidado en un cajón
   G           B7              C
y todo este tiempo te he mentido
           Cm
pues tus besos no son lo mejor




C9:     032033
sus*:    022033
B7:     021202




Bueno ps aki esta mi correccion d la transcripcion pasada
espero les guste y ps Yulissen eres buena sigue asi :)

alguna duda aki esta mi correo..reik_1546@hotmail.com
Versión 3 - Ya no quiero (Letra y acordes)
intro
/G C G D/
G       C          G     D
Tantas bellas palabras
G       C          G     D
que me decías
G       C          G     D
tonta y enamorada
G       C          G     D
ya me tenias

G       C          G     D
Tus caricias vacías
G       C          G     D
me las creía
G       C          G     D
de tus besos y abrazos
G       C          G     D
me derretía.


Puente:

C
Me engañaste y dejaste
                                  G
Lastimaste a mi pobre corazón


Coro
         B7            C           Cm
Ya no quiero ver tu foto en mi buró
G                B7         C             Cm
Vete que ya te tengo olvidado en un cajón
   G           B7              C
Y todo este tiempo te he mentido
           Cm
Pues tus besos no son lo mejor

intro

G       C          G     D
Me propuse olvidar
G       C          G     D
y madurar
G       C          G     D
Volveré a empezar
G       C          G     D
y lo voy a lograr.


Puente 2:

C
Te dejé en el pasado
                               G
Has quedado olvidado corazón

         B7             C           Cm
ya no quiero ver tu foto en mi buró
G                B7         C            Cm
vete que ya te tengo olvidado en un cajón
   G           B7              C
y todo este tiempo te he mentido
           Cm
pues tus besos no son lo mejor




/G Am C B7/


G         B7             C           Cm
ya no quiero ver tu foto en mi buró
G                B7         C            Cm
vete que ya te tengo olvidado en un cajón
   G           B7              C
y todo este tiempo te he mentido
           Cm
pues tus besos no son lo mejor
Versión 4 - Ya no quiero (Letra y acordes)
Nota: hay unos acordes que no recordaba el nombre y los
puse abajo, son los marcados con * y corregí Cmaj7 de la
transcripción que hice antes porque la maquina no la puso
como pensé que la pondría así que aquí esta


Mientras que se toca el solo con otra guitarra, se tocan
estos acordes en la lira acústica:

INTRO: G   Cmaj7*    G   D  (x2)

6:------------|-----------|
5:------------|-----------|
4:------------|-----------|
g:------------|-----------|
b:---3-----3--|---3-----3-|
e:-3---3-3----|-3---5-5---|


G       Cmaj7*    G   D
Tantas bellas palabras
     G       Cmaj7*    G   D
que me decías
G        Cmaj7*     G   D
tonta y enamorada
    G    Cmaj7*     G   D
ya me tenias

G       Cmaj7*    G   D
Tus caricias vacías
G       Cmaj7*   G   D
me las creía
G       Cmaj7*    G   D
de tus besos y abrazos
G       Cmaj7*    G   D
me derretía.


Puente:

Cmaj7*              C
Me engañaste y dejaste
     Cmaj7*      G*            G
Lastimaste a mi pobre corazón


Coro
         B7            C           C*
Ya no quiero ver tu foto en mi buró
G                B7         C             C*
Vete que ya te tengo olvidado en un cajón
   G           B7              C
Y todo este tiempo te he mentido
           Cm
Pues tus besos no son lo mejor


***SE REPITE INTRO***


G       Cmaj7*    G   D
Me propuse olvidar
G       Cmaj7*    G   D
y madurar
G       Cmaj7*    G   D
Volveré a empezar
G       Cmaj7*    G   D
y lo voy a lograr.


Puente 2:

Cmaj7*              C
Te dejé en el pasado
    Cmaj7*      G*           G
Has quedado olvidado corazón

         B7             C           C*
ya no quiero ver tu foto en mi buró
G                B7         C            C*
vete que ya te tengo olvidado en un cajón
   G           B7              C
y todo este tiempo te he mentido
           Cm
pues tus besos no son lo mejor



Mientras está el solo con otra lira, tocar los siguientes
acordes y espero que estén correctos:

G Am C B7
G Am C B7


G         B7             C           C*
ya no quiero ver tu foto en mi buró
G                B7         C            C*
vete que ya te tengo olvidado en un cajón
   G           B7              C
y todo este tiempo te he mentido
           Cm
pues tus besos no son lo mejor




C*:     012303
G*:     233003
Cmaj7*: 330230


(el solo lo tome de la trascripción pasada, espero que esté
 bien pq no lo he calado pero aquí está).

Solo:
6:---------------------|-----------------------|--------------------|
5:---------------------|-----------------------|--------------------|
4:---------------------|-----------------------|--------------------|
g:-/9---9-------9-9--9-|-/9---9-------9-9-9/11-|--------------9-7/9-|
b:----8---8---8----8---|----8---8---8----------|-------10-8-7-------|
e:----------7----------|----------7------------|-7-8-7--------------|


6:----------------------|------------|-------------------------------|
5:----------------------|------------|-------------------------------|
4:----------------------|------------|-------------------------------|
g:-/9---9-------9-9--9--|------------|-9---8-------------------------|
b:----8---8---8----8---8|-8h10--8/10-|---8---9---10-8--8-12-12--12-12|
e:----------7-----------|-------8/10-|---------7---------11-11--11-11|




Pues aquí está mi transcripción espero que les guste y esque la
neta, las otras transcripciones están medio piratonas
espero y les guste...

Saludos a Hermosillo, Sonora México..



















__________________
tadm mi champiñon
con patas =P
=)
TAE!!
Versión 5 - Ya no quiero (Tablatura para guitarra (TAB))
Intro:

  G       C9   G      D
E:------------|-----------|
A:------------|-----------|
D:------------|-----------|
G:------------|-----------|
B:---3-----3--|---3-----3-|
E:-3---3-3----|-3---5-5---|

  G       C9   G      D
E:------------|-----------|-----|
A:------------|-----------|-----|
D:------------|-----------|-----|
G:------------|-----------|-----|
B:---3-----3--|---3-----3-|-----|
E:-3---3-3----|-3---5-5---|-3---|

G        C9          G    D
Tantas bellas palabras
     G      C9  G   D
que me decías
G        C9      G   D
tonta y enamorada
    G       C9   G   D
ya me tenias
                                   riff 1
G     C9         G   D
Tus caricias vacías
 G        C9   G   D
me las creía
G       C9            G    D
de tus besos y abrazos
    G    C9   G   D
me derretía.
                                   riff 2
C
Me engañaste y dejaste
                            G
Lastimaste a mi pobre corazón

Coro:
         B           C            F
Ya no quiero ver tu foto en mi buró
 G              B         C             F
Vete que ya te tengo olvidado en un cajón
   G           B             C
Y todo este tiempo te he mentido
          Cm
Pues tus besos no son lo mejor.


  G       C9   G      D
E:------------|-----------|
A:------------|-----------|
D:------------|-----------|
G:------------|-----------|
B:---3-----3--|---3-----3-|
E:-3---3-3----|-3---5-5---|

  G       C9   G      D
E:------------|-----------|-----|
A:------------|-----------|-----|
D:------------|-----------|-----|
G:------------|-----------|-----|
B:---3-----3--|---3-----3-|-----|
E:-3---3-3----|-3---5-5---|-3---|

G      C9          G   D
Me propuse olvidar
    G    C9   G   D
y madurar
G     C9        G  D
Volveré a empezar
G              C9    G   D
y lo voy a lograr

C
Te dejé en el pasado
                          G
Has quedado olvidado corazón

Coro


         B           C            F
Ya no quiero ver tu foto en mi buró
 G              B         C             F
Vete que ya te tengo olvidado en un cajón
   G           B             C
Y todo este tiempo te he mentido
          Cm                Em
Pues tus besos no son lo mejor.

Solo:


  Em                A     C                     B
E:-----------------------|-------------------------|--------------------|
A:-----------------------|-------------------------|--------------------|
D:-----------------------|-------------------------|--------------------|
G:-/9---9---------9-9--9|-/9---9---------9-9------|--------------9-7/9-|
B:----8---8-----8-----8--|----8---8-----8----/7----|-------10-8-7-------|
E:----------5/7----------|----------5/7------------|-7-8-7--------------|


  Em                   A
E:-----------------------|-----------------------|
A:-----------------------|-----------------------|
D:-----------------------|-----------------------|
G:-/9---9---------9-9--9|-----------------------|
B:----8---8-----8-----8--|-8h10----8/10-10-10-10|
E:----------5/7----------|------7--8/10-10-10-10|



  C                   B-B  - B-B  -  B-B
E:-----------------------------------------|
A:-----------------------------------------|
D:-----------------------------------------|
G:-/9---9-----------9----------------------|
B:----8---8---10/8----12-12---12-12---12-12|
E:----------7---------11-11---11-11---11-11|

                   G
No, no, no, no, nooooo....!!!!

Coro

         B           C            F
Ya no quiero ver tu foto en mi buró
 G              B         C             F
Vete que ya te tengo olvidado en un cajón
   G           B             C
Y todo este tiempo te he mentido
          Cm
Pues tus besos no son lo mejor.



Acordes

     EADGBE

 G:  320033
 C:  332010
 C9: 032033
 D:  000232
 B:  224442
 F:  133211
 Cm: 335543
 Em: 022000
riff 1

(palm mute)

     G9     C9     E9    D9
E:-3-3-3---------0-0-0--------------------|
A:-5-5-5--3-3-3--2-2-2--5-5-5-------------|
D:-5-5-5--3-3-3---------7-7-7-------------|
G:--------5-5-5---------7-7-7-------------|
B:----------------------------------------|
E:----------------------------------------|

riff 2

(palm mute)

     C9
E:----------------------------------------|
A:-5-5-5-5-5------------------------------|
D:-7-7-7-7-7------------------------------|
G:-7-7-7-7-7------------------------------|
B:----------------------------------------|
E:----------------------------------------|


Espero les guste, a mi parecer se escucha como la canción,
solo que en la primera guitarra hay que escuchar bien el ritmo
para que se escuche más chido, espero me califiquen por favor.
Dudas, correcciones, a mi correo.

TE AMO MI CIELO, ALMA
Versión 6 - Ya no quiero (Tablatura para guitarra (TAB))
Ps ahí esta esta buena rola d Jesse y Joy, los acordes de las otras
transcripciones no estabn mal, pro si se fijan la terminación en
las estrofas suena a la primera cuerda en el tercer traste,
así k ps io me base en eso tambien.
 En el solo, me base en el k escribio antes Javier?¿? o bueno, no
me acuerdo kmo se llama, pro solo le adicione algunos bajos para
k no se oiga tan solo. El acorde k le puse (1) no creo k exista
jaja, pro ps d otra manera los bajos eran mas difíciles d tocar,
esa es la manera mas facil para k suene bn. Yo creo k es mejor, si
la tocas con una sola guitarra, en vez de el solo, un puente con
rasgueos, los acordes de la transcripción d JAvier, los tienen sobre el
solo.
Bueno, ahora si:

Acordes:
     EADGBE
G    320033
C9   032033
Em/G 022033
D/F# 200233
B7   223232
C    332010
F    133211
Cm   335543
(1)  800987

Intro con una guitarra:
  G         G
6:-3----------3----------|
5:----------------0------|
4:-----------------------|
g:-0----------0----------|
b:-3-3-----3--3-3-----3--|
e:-3---3-3----3---5-5----|

   G           G      G
6:-3----------3----------3-|
5:----------------0--------|
4:-------------------------|
g:-0----------0----------0-|
b:-3-3-----3--3-3-----3--3-|
e:-3---3-3----3---5-5----3-|

Intro a dos guitarras:

 Guitarra 1
   G  C9  Em/G  D/F#

 Guitarra 2
6:------------|-----------|
5:------------|-----------|
4:------------|-----------|
g:------------|-----------|
b:---3-----3--|---3-----3-|
e:-3---3-3----|-3---5-5---|

  Guitarra 1
    G  C9  Em/G  D/F#

  Guitarra 2
6:------------|-----------|---|
5:------------|-----------|---|
4:------------|-----------|---|
g:------------|-----------|---|
b:---3-----3--|---3-----3-|---|
e:-3---3-3----|-3---5-5---|-3-|

G        C9        Em/G    D/F#
Tantas bellas palabras
     G       C9 Em/G   D/F#
que me decías
G        C9       Em/G   D/F#
tonta y enamorada
    G        C9   Em/G   D/F#
ya me tenias

G     C9          Em/G   D/F#
Tus caricias vacías
 G        C9   Em/G   D/F#
me las creía
G       C9            Em/G   D/F#
de tus besos y abrazos
    G    C9   Em/G   D/F#
me derretía.

C9
Me engañaste y dejaste
                            G
Lastimaste a mi pobre corazón

Coro:
         B           C            F
Ya no quiero ver tú foto en mi buró
 G              B         C             F
Vete que ya te tengo olvidado en un cajón
   G           B                C
Y todo este tiempo te he mentido
          Cm
Pues tus besos no son lo mejor


  G       C  Em      D
6:------------|-----------|
5:------------|-----------|
4:------------|-----------|
g:------------|-----------|
b:---3-----3--|---3-----3-|
e:-3---3-3----|-3---5-5---|

  G       C  Em      D
6:------------|-----------|---|
5:------------|-----------|---|
4:------------|-----------|---|
g:------------|-----------|---|
b:---3-----3--|---3-----3-|---|
e:-3---3-3----|-3---5-5---|-3-|

G      C9           Em/G   D/F#
Me propuse olvidar
    G    C9   Em/G   D/F#
y madurar
G     C9         Em/G    D/F#
Volveré a empezar

G              C9   Em/G  D/F#
y lo voy a lograr

C9
Te dejé en el pasado
                          G
Has quedado olvidado corazón

Coro:
        B           C            F
Ya no quiero ver tú foto en mi buró
 G              B         C             F
Vete que ya te tengo olvidado en un cajón
   G           B                C
Y todo este tiempo te he mentido
          Cm
Pues tus besos no son lo mejor

Solo:


  Em                         (1)                                      Em
6:--0--------------------|--8-----------------7----|------------------0-|
5:--------------------0--|-------------------------|--------------------|
4:-----------------------|-------------------------|--------------------|
g:-/9---9---------9-9--9-|----9---9-------9-9------|--------------9-7/9-|
b:----8---8-----8-----8--|------8---8---8-----7----|-------10-8-7-------|
e:----------6/7----------|------------7------------|-7-8-7--------------|


  Em
6:-----------------------|----------------------|
5:-------------------0---|----------------------|
4:-----------------------|----------------------|
g:-/9---9---------9-9--9-|----------------------|
b:----8---8-----8----8---|-8h10----9/10-10-10-10|
e:----------6/7----------|------7--9/10-10-10-10|



  (1)
E:-8---------------------------------------|
A:-----------------------------------------|
D:-----------------------------------------|
g:--9---9----------9-----------------------|
b:----8---8---10-8----12-12---12-12---12-12|
e:----------7---------11-11---11-11---11-11|

                   G
No, no, no, no, nooooo....!!!!

Coro
        B           C            F
Ya no quiero ver tú foto en mi buró
 G              B         C             F
Vete que ya te tengo olvidado en un cajón

   G           B                C
Y todo este tiempo te he mentido
          Cm
Pues tus besos no son lo mejo-o-o-o-o-o-o-or

El material contenido en esta página es para exclusivo uso privado y con propósito meramente educativo, se prohibe su reproducción y uso con fines comerciales