Me quiero enamorar

Tabs, letra y acordes de 'Me quiero enamorar' por Jesse y Joy

Versiones disponibles: Letra y acordes - Tablatura para guitarra (TAB) - Letra y acordes - Letra y acordes - Tablatura para guitarra (TAB)

Hola a todos los usuarios de LaCuerda.net

Primero que todo, estoy muy entusiasmado ya que es primera vez que hago esto.

Segundo, para esta canción de preferencia tocar entre la 2da y 6ta cuerda,
considerando jugar entre la 5ta y 6ta marcando la nota del acorde base.

Tercero, el arpegio sería simple, se tocan cuatro cuerdas de forma descendente
(de acuerdo al orden de las cuerdas, ej partir de la 5ta hasta la 2da).


Acordes usados (marcando las 4 cuerdas a tocar):

C          | -3201- |
C7sus2/B   | -2001- |
Am         | -0221- |
G5         | 3-003- |
Gsus2/A    | -0003- |
G/B        | -2003- |
F          | 1-321- |
G          | 3-003- |
Am7        | -0201- |
C7         | -3200- |
D/F#       | 2-023- |
Am/E       | 0-221- |
G2         | 3-000- |  * otro tipo de G solo para diferenciar uno de otro



Lo demás está a continuación:

Intro:

C   C7sus2/B   F   F
C   C7sus2/B   F   3-0-2 (6ta - 5ta - 5ta correspondientemente)


     C               C7sus2/B         F
Me puedo imaginar pero no se como se siente,
        C                 C7sus2/B      F
Que el mundo se detenga cuando acaricia mi piel,
         C                  C7sus2/B           F
Que las manos del reloj no giren si no está presente,
 C                       C7sus2/B       F
Dicen que es tan suave, dulce y fluye como miel


  C      C7sus2/B  F
Cuanto tiempo tardara ¿O no es para todos?
       C     C7sus2/B     F
¿Por qué de mí se esconderá?
  G5 - Gsus2/A - G/B
¿Dónde está?
   F     G            Am7      C7
Quiero amar y sin pensar entregarlo todo
   F     G         Am7      C           F            G       C-C7sus2/B-Am-Am/E
Quiero que mi corazón intercambie su lugar con el de alguien especial
        D/F#                F                 G         C   C7sus2/B   F
Quiero despertar, te quiero encontrar y me quiero enamorar


C   C7sus2/B   F   G2


      C                  C7sus2/B          F
No quiero imaginar, quiero saber cómo se siente
        C                 C7sus2/B              F
Que un beso me desnude el alma y me hormigueen los pies
      C                  C7sus2/B            F
Sus brazos ser mi abrigo en los fríos de diciembre
          C              C7sus2/B          F
Y en los días de verano juntos ver el sol nacer


  C      C7sus2/B  F
Cuanto tiempo tardara ¿O no es para todos?
       C     C7sus2/B     F
¿Por qué de mí se esconderá?
  G5 - Gsus2/A - G/B
¿Dónde está?
   F     G            Am7      C7
Quiero amar y sin pensar entregarlo todo
   F     G         Am7      C           F            G       C-C7sus2/B-Am-Am/E
Quiero que mi corazón intercambie su lugar con el de alguien especial
        D/F#                F                 G         C   C7sus2/B  Am  Am/E
Quiero despertar, te quiero encontrar y me quiero enamorar


F   C   G5 - Gsus2/A - G/B - 0/2\0 (4ta cuerda con ligado)

C   C7sus2/B   Am   Am/E  F   C   G5 - Gsus2/A - G/B


   F     G            Am7      C7
Quiero amar y sin pensar entregarlo todo
   F     G         Am7      C           F            G       C-C7sus2/B-Am-Am/E
Quiero que mi corazón intercambie su lugar con el de alguien especial
        D/F#                F                 G         C-C7sus2/B-Am-Am/E
Quiero despertar, te quiero encontrar y me quiero enamorar
        D/F#                F                 G         C-C7sus2/B-Am-Am/E
Quiero despertar, te quiero encontrar y me quiero enamorar
        D/F#                F                 3-0-2*    C
Quiero despertar, te quiero encontrar y me quiero enamorar


*(6ta - 5ta - 5ta correspondientemente)



Ojalá les haya gustado, saludos
Versión 2 - Me quiero enamorar (Tablatura para guitarra (TAB))
Intro   Riff 1        Riff 2                  Csus2/B   X2001X
                                                Fsus2   1X301X
Riff 1
   C         Csus2/B      Fsus2
e-------------------------------------------------------
B-----1-----1-----1-----1-----1-----1-----1-----1-------
G----0-----0-----0-----0-----0-----0-----0-----0--------
D---2-----2-----0-----0-----3-----3-----3-----3---------
A--3-----3-----2-----2----------------------------------
E--------------------------1-----1-----1-----1----------

Riff 2
   C         Csus2/B      Fsus2        /G  /A  /B
e-------------------------------------------------------
B-----1-----1-----1-----1-----1-----1-----------0-------
G----0-----0-----0-----0-----0-----0----0---2-----------
D---2-----2-----0-----0-----3-----3---------------------
A--3-----3-----2-----2----------------------0---2-------
E--------------------------1-----1------3---------------

     C               Csus2/B          Fsus2
Me puedo imaginar pero no sé cómo se siente,
        C                 Csus2/B        Fsus2
que el mundo se detenga cuando acaricia mi, piel,
         C                  Csus2/B           Fsus2
que las manos del reloj no giren si no está presente,
 C                       Csus2/B           Fsus2
dicen que es tan suave y dulce y fluye como miel.

PRECORO
  C      Csus2/B     Fsus2
Cuanto tiempo, tardará, ¿O no es para todos?,
       C     Csus2/B        Fsus2
¿Por qué, de mí se, esconderá?,
 Riff 3
¿Dónde está?

Riff 3
  G6*     Am7*    G7*
e-----0------0-------1------1---
B----3------1-------3------3----
G---0------0-------0------0-----
D-------------------------------
A---------0-------2------2------
E--3----------------------------

CORO                                              Fadd9   X8706X
 FAdd9   G            Am      C
Quiero amar y sin pensar, entregarlo todo,
 FAdd9   G         Am      C           FAdd9
quiero que mi corazón, intercambie su lugar,
          G             C  Csus2/B  Am  Am/G
con el de alguien especia, ah ah ah al,
       D/F#                 F                 G         C
quiero despertar, te quiero encontrar y me quiero enamorar.

Inter   Csus2/B   Fsus2   C   Csus2/B   Fsus2    G

No quiero imaginar, quiero saber cómo se siente,
que un beso me desnude el alma y me hormigueen los, pies,
sus brazos sean mi abrigo en los fríos de Diciembre,
y en los días de verano juntos ver el Sol nacer.

PRECORO
CORO

SOLO  C   Csus2/B   Am   Em   F   C   G6*   Am7*  G7*   (2)

CORO

FINAL
Csus2/B   Am   Am/G
        D/F#                 Fsus2            G         C
Quiero despertar, te quiero encontrar y me quiero enamorah,
Csus2/B  Am   Am/G
ah ah ah ah!
        D/F#              Fsus2               G /A /B   C
quiero despertar, te quiero encontrar y me quiero enamorar.
Versión 3 - Me quiero enamorar (Letra y acordes)
C                  Csus               Am
Me puedo imaginar pero no sé cómo se siente
    C                  Csus               Am
Que el mundo se detenga cuando acaricia mi piel
 C                  Csus               Am
Que las manos del reloj no giren si no está presente
C                  Csus               Am
Dicen que es tan suave, dulce y fluye como miel

C     Csus        Am
Cuanto tiempo tardara
    C                  Csus               Am
¿O no es para todos? ¿Por qué de mí se esconderá?
G
¿Dónde está?
F                 G               Am
Quiero amar y sin pensar entregarlo todo
F       G         Am                  F                G    C  Csus Am
Quiero que mi corazón intercambie su lugar con el de alguien especial
      Dm           F        G               C
Quiero despertar, te quiero encontrar y me quiero enamorar


C                  Csus               Am
No quiero imaginar, quiero saber cómo se siente
 C                  Csus               Am
Que un beso me desnude el alma y me hormigueen los pies
   C                  Csus               Am
Sus brazos ser mi abrigo en los fríos de diciembre
       C                  Csus               Am
Y en los días de verano juntos ver el sol nacer

C     Csus        Am
Cuanto tiempo tardara
    C                  Csus               Am
¿O no es para todos? ¿Por qué de mí se esconderá?
G
¿Dónde está?
F                 G               Am
Quiero amar y sin pensar entregarlo todo
F       G         Am                  F                G     C Csus Am
Quiero que mi corazón intercambie su lugar con el de alguien especial
      Dm           F        G               C
Quiero despertar, te quiero encontrar y me quiero enamorar

F                 G               Am
Quiero amar y sin pensar entregarlo todo
F       G                    Am            F             G  Am
Quiero que mi corazón intercambie su lugar con el de alguien especial
         Dm           F        G               C
Quiero despertar, te quiero encontrar y me quiero enamorar
        Dm           F        G               C     Csus Am
Quiero despertar, te quiero encontrar y me quiero enamorar
          Dm                 F             G           C
Quiero despertar, te quiero encontrar y me quiero enamorar
Versión 4 - Me quiero enamorar (Letra y acordes)
Intro:

C   G   Am  C   G   Am

     C         G                      Am
Me puedo imaginar pero no sé cómo se siente,
        C               G                  Am
Que el mundo se detenga cuando acaricia mi piel,
          C               G                  Am
Que las manos del reloj no giren si no está presente,
        C               G                  Am
Dicen que es tan suave, dulce y fluye como miel


  C   G          Am
Cuanto tiempo tardara ¿O no es para todos?
    C    G             Am
¿Por qué de mí se esconderá?
  C   G   Am
¿Dónde está?
   F     G            Am      C
Quiero amar y sin pensar entregarlo todo
   F     G         Am      C           F            G       C-G-Am
Quiero que mi corazón intercambie su lugar con el de alguien especial
        D                        F        G         C
Quiero despertar, te quiero encontrar y me quiero enamorar


C   G   Am  C   G   Am

 C                     G                      Am
No quiero imaginar, quiero saber cómo se siente
        C                     G                      Am
Que un beso me desnude el alma y me hormigueen los pies
    C                     G                      Am
Sus brazos ser mi abrigo en los fríos de diciembre
C                          G               Am
Y en los días de verano juntos ver el sol nacer


  C   G          Am
Cuanto tiempo tardara ¿O no es para todos?
    C    G             Am
¿Por qué de mí se esconderá?
  C   G   Am
¿Dónde está?
   F     G            Am      C
Quiero amar y sin pensar entregarlo todo
   F     G         Am      C           F            G       C-G-Am
Quiero que mi corazón intercambie su lugar con el de alguien especial
        D                        F        G         C
Quiero despertar, te quiero encontrar y me quiero enamorar

C G  Am  C G Am
F G  Am  C
F G  Am  C F G   C-G-Am



   F     G            Am      C
Quiero amar y sin pensar entregarlo todo
   F     G         Am      C           F            G       C-G-Am
Quiero que mi corazón intercambie su lugar con el de alguien especial
        D                        F        G         C-G-Am
Quiero despertar, te quiero encontrar y me quiero enamoraaaaaaar
        D                        F        G         C
Quiero despertar, te quiero encontrar y me quiero enamorar
        D                        F        G         C
Quiero despertar, te quiero encontrar y me quiero enamorar.
Versión 5 - Me quiero enamorar (Tablatura para guitarra (TAB))
Hola amigos e visto esta cancion pero desde hace años noto q nadie sube la
tablatura asiq e decidido hacerla porsi a alguien le interesa :D
Escuchen la cancion para poder sacar bien los tiempo de los arpegios
todos son de manera desendente :) suerte

intro:


|--------------------|------------------|
|-------1------1-----|-------1------1---|
|-----0------0-------|-----0------0-----|
|---2------2---------|---0------0-------|
|-3------3-----------|-2------2---------|
|--------------------|------------------|

|-------------------------------------------|
|--------1---------1-------1--------1-------|
|------0--------0--------0--------0---------|
|----0--------0--------0--------0-----------|
|-------------------------------------------|
|-1---------1--------1--------1-------------|


|--------------------|------------------|-----------------------|
|-------1------1-----|-------1------1---|--------1--------------|
|-----0------0-------|-----0------0-----|------0--------0-------|
|---2------2---------|---0------0-------|----0--------0---------|
|-3------3-----------|-2------2---------|-----------------------|
|--------------------|------------------|-1---------1-----------|

|---------------------|
|-0---1---3-----------|
|---------------------|
|---------------------|
|---------2-----------|
|-3---0---------------|


Me puedo imaginar pero no se como se siente,

|--------------------|------------------|
|-------1------1-----|-------1------1---|
|-----0------0-------|-----0------0-----|
|---2------2---------|---0------0-------|
|-3------3-----------|-2------2---------|
|--------------------|------------------|

|-------------------------------------------|
|--------1---------1-------1--------1-------|
|------0--------0--------0--------0---------|
|----0--------0--------0--------0-----------|
|-------------------------------------------|
|-1---------1--------1--------1-------------|


Que el mundo se detenga cuando acaricia mi piel,

|--------------------|------------------|
|-------1------1-----|-------1------1---|
|-----0------0-------|-----0------0-----|
|---2------2---------|---0------0-------|
|-3------3-----------|-2------2---------|
|--------------------|------------------|

|-------------------------------------------|
|--------1---------1-------1--------1-------|
|------0--------0--------0--------0---------|
|----0--------0--------0--------0-----------|
|-------------------------------------------|
|-1---------1--------1--------1-------------|

Que las manos del reloj no giren si no está presente,

|--------------------|------------------|
|-------1------1-----|-------1------1---|
|-----0------0-------|-----0------0-----|
|---2------2---------|---0------0-------|
|-3------3-----------|-2------2---------|
|--------------------|------------------|

|-------------------------------------------|
|--------1---------1-------1--------1-------|
|------0--------0--------0--------0---------|
|----0--------0--------0--------0-----------|
|-------------------------------------------|
|-1---------1--------1--------1-------------|

Dicen que es tan suave, dulce y fluye como miel

|--------------------|------------------|
|-------1------1-----|-------1------1---|
|-----0------0-------|-----0------0-----|
|---2------2---------|---0------0-------|
|-3------3-----------|-2------2---------|
|--------------------|------------------|

|-------------------------------------------|
|--------1---------1-------1--------1-------|
|------0--------0--------0--------0---------|
|----0--------0--------0--------0-----------|
|-------------------------------------------|
|-1---------1--------1--------1-------------|


Cuanto tiempo tardara ¿O no es para todos?

|--------------------|------------------|
|-------1------1-----|-------1------1---|
|-----0------0-------|-----0------0-----|
|---2------2---------|---0------0-------|
|-3------3-----------|-2------2---------|
|--------------------|------------------|

|-------------------------------------------|
|--------1---------1-------1--------1-------|
|------0--------0--------0--------0---------|
|----0--------0--------0--------0-----------|
|-------------------------------------------|
|-1---------1--------1--------1-------------|

¿Por qué de mí se esconderá?

|--------------------|------------------|
|-------1------1-----|-------1------1---|
|-----0------0-------|-----0------0-----|
|---2------2---------|---0------0-------|
|-3------3-----------|-2------2---------|
|--------------------|------------------|

|-------------------------------------------|
|--------1---------1-------1--------1-------|
|------0--------0--------0--------0---------|
|----0--------0--------0--------0-----------|
|-------------------------------------------|
|-1---------1--------1--------1-------------|

¿Dónde está?

|---------------------------------------|
|---------0--------1----------1-------1-|
|-------0--------0----------0-------0---|
|-----0--------0----------0-------0-----|
|------------0---------2--------2-------|
|-3-------------------------------------|

Quiero amar y sin pensar entregarlo todo

|--------------|    |---------------|
|---------6----|    |--------0------|
|-------0------|x2  |------0--------|x2
|-----7--------|    |----0----------|
|---8----------|    |---------------|
|--------------|    |-3-------------|

|---------------|    |--------------|
|-------1-------|    |-------1------|
|-----2---------|x2  |-----0--------|x2
|---2-----------|    |---2----------|
|-0-------------|    |-3------------|
|---------------|    |--------------|

Quiero que mi corazón intercambie su lugar

|--------------|    |---------------|
|---------6----|    |--------0------|
|-------0------|x2  |------0--------|x2
|-----7--------|    |----0----------|
|---8----------|    |---------------|
|--------------|    |-3-------------|

|---------------|    |--------------|
|-------1-------|    |-------1------|
|-----2---------|x2  |-----0--------|x2
|---2-----------|    |---2----------|
|-0-------------|    |-3------------|
|---------------|    |--------------|

                     con el de alguien especial
|---------------------------|-------------------|
|----------6-----------6----|--------0------0---|
|-------0-----------0-------|------0------0-----|
|----7-----------7----------|----0------0-------|
|-8-----------8-------------|-------------------|
|---------------------------|-3-------3---------|

|-------------------------------|
|--------1-------1-------1------|
|------0-------0-------0--------|
|----2-------0-------0----------|
|--3-------2-------0------------|
|-------------------------------|

             Quiero despertar, te quiero encontrar y me quiero enamorar

|-----------------------------------------------------
|------------0--------3---------3----------3--------3-
|---------0---------0---------0----------0--------0---
|------0----------0---------0----------0--------0-----
|-----------------------------------------------------
|--3-----------2----------2---------2--------2--------

|----------------------------------------|
|--------1-------1---------0--------0----|
|------0-------0---------0--------0------|
|----0-------0---------0--------0--------|
|----------------------------------------|
|-1--------1--------3---------3----------|



intro x2


No quiero imaginar, quiero saber cómo se siente
|--------------------|------------------|
|-------1------1-----|-------1------1---|
|-----0------0-------|-----0------0-----|
|---2------2---------|---0------0-------|
|-3------3-----------|-2------2---------|
|--------------------|------------------|

|-------------------------------------------|
|--------1---------1-------1--------1-------|
|------0--------0--------0--------0---------|
|----0--------0--------0--------0-----------|
|-------------------------------------------|
|-1---------1--------1--------1-------------|

Que un beso me desnude el alma y me hormigueen los pies
|--------------------|------------------|
|-------1------1-----|-------1------1---|
|-----0------0-------|-----0------0-----|
|---2------2---------|---0------0-------|
|-3------3-----------|-2------2---------|
|--------------------|------------------|

|-------------------------------------------|
|--------1---------1-------1--------1-------|
|------0--------0--------0--------0---------|
|----0--------0--------0--------0-----------|
|-------------------------------------------|
|-1---------1--------1--------1-------------|

Sus brazos ser mi abrigo en los fríos de diciembre
|--------------------|------------------|
|-------1------1-----|-------1------1---|
|-----0------0-------|-----0------0-----|
|---2------2---------|---0------0-------|
|-3------3-----------|-2------2---------|
|--------------------|------------------|

|-------------------------------------------|
|--------1---------1-------1--------1-------|
|------0--------0--------0--------0---------|
|----0--------0--------0--------0-----------|
|-------------------------------------------|
|-1---------1--------1--------1-------------|

Y en los días de verano juntos ver el sol nacer
|--------------------|------------------|
|-------1------1-----|-------1------1---|
|-----0------0-------|-----0------0-----|
|---2------2---------|---0------0-------|
|-3------3-----------|-2------2---------|
|--------------------|------------------|

|-------------------------------------------|
|--------1---------1-------1--------1-------|
|------0--------0--------0--------0---------|
|----0--------0--------0--------0-----------|
|-------------------------------------------|
|-1---------1--------1--------1-------------|


Cuanto tiempo tardara ¿O no es para todos?
|--------------------|------------------|
|-------1------1-----|-------1------1---|
|-----0------0-------|-----0------0-----|
|---2------2---------|---0------0-------|
|-3------3-----------|-2------2---------|
|--------------------|------------------|

|-------------------------------------------|
|--------1---------1-------1--------1-------|
|------0--------0--------0--------0---------|
|----0--------0--------0--------0-----------|
|-------------------------------------------|
|-1---------1--------1--------1-------------|

¿Por qué de mí se esconderá?
|--------------------|------------------|
|-------1------1-----|-------1------1---|
|-----0------0-------|-----0------0-----|
|---2------2---------|---0------0-------|
|-3------3-----------|-2------2---------|
|--------------------|------------------|

|-------------------------------------------|
|--------1---------1-------1--------1-------|
|------0--------0--------0--------0---------|
|----0--------0--------0--------0-----------|
|-------------------------------------------|
|-1---------1--------1--------1-------------|

¿Dónde está?
|---------------------------------------|
|---------0--------1----------1-------1-|
|-------0--------0----------0-------0---|
|-----0--------0----------0-------0-----|
|------------0---------2--------2-------|
|-3-------------------------------------|

Quiero amar y sin pensar entregarlo todo
|--------------|    |---------------|
|---------6----|    |--------0------|
|-------0------|x2  |------0--------|x2
|-----7--------|    |----0----------|
|---8----------|    |---------------|
|--------------|    |-3-------------|

|---------------|    |--------------|
|-------1-------|    |-------1------|
|-----2---------|x2  |-----0--------|x2
|---2-----------|    |---2----------|
|-0-------------|    |-3------------|
|---------------|    |--------------|

Quiero que mi corazón intercambie su lugar
|--------------|    |---------------|
|---------6----|    |--------0------|
|-------0------|x2  |------0--------|x2
|-----7--------|    |----0----------|
|---8----------|    |---------------|
|--------------|    |-3-------------|

|---------------|    |--------------|
|-------1-------|    |-------1------|
|-----2---------|x2  |-----0--------|x2
|---2-----------|    |---2----------|
|-0-------------|    |-3------------|
|---------------|    |--------------|



                     con el de alguien especial

|---------------------------|-------------------|
|----------6-----------6----|--------0------0---|
|-------0-----------0-------|------0------0-----|
|----7-----------7----------|----0------0-------|
|-8-----------8-------------|-------------------|
|---------------------------|-3-------3---------|

|-------------------------------|
|--------1-------1-------1------|
|------0-------0-------0--------|
|----2-------0-------0----------|
|--3-------2-------0------------|
|-------------------------------|


                Quiero despertar, te quiero encontrar y me quiero enamorar
|-----------------------------------------------------|
|------------0--------3---------3----------3--------3-|
|---------0---------0---------0----------0--------0---|
|------0----------0---------0----------0--------0-----|
|-----------------------------------------------------|
|--3-----------2----------2---------2--------2--------|

|----------------------------------------|
|--------1-------1---------0--------0----|
|------0-------0---------0--------0------|
|----0-------0---------0--------0--------|
|----------------------------------------|
|-1--------1--------3---------3----------|



intro x4


Quiero amar y sin pensar entregarlo todo
|--------------|    |---------------|
|---------6----|    |--------0------|
|-------0------|x2  |------0--------|x2
|-----7--------|    |----0----------|
|---8----------|    |---------------|
|--------------|    |-3-------------|

|---------------|    |--------------|
|-------1-------|    |-------1------|
|-----2---------|x2  |-----0--------|x2
|---2-----------|    |---2----------|
|-0-------------|    |-3------------|
|---------------|    |--------------|

Quiero que mi corazón intercambie su lugar
|--------------|    |---------------|
|---------6----|    |--------0------|
|-------0------|x2  |------0--------|x2
|-----7--------|    |----0----------|
|---8----------|    |---------------|
|--------------|    |-3-------------|

|---------------|    |--------------|
|-------1-------|    |-------1------|
|-----2---------|x2  |-----0--------|x2
|---2-----------|    |---2----------|
|-0-------------|    |-3------------|
|---------------|    |--------------|
                    con el de alguien especial

|---------------------------|-------------------|
|----------6-----------6----|--------0------0---|
|-------0-----------0-------|------0------0-----|
|----7-----------7----------|----0------0-------|
|-8-----------8-------------|-------------------|
|---------------------------|-3-------3---------|

|-------------------------------|
|--------1-------1-------1------|
|------0-------0-------0--------|
|----2-------0-------0----------|
|--3-------2-------0------------|
|-------------------------------|

                  Quiero despertar, te quiero encontrar y me quiero enamorar
|-----------------------------------------------------|
|------------0--------3---------3----------3--------3-|
|---------0---------0---------0----------0--------0---|
|------0----------0---------0----------0--------0-----|
|-----------------------------------------------------|
|--3-----------2----------2---------2--------2--------|

|----------------------------------------|
|--------1-------1---------0--------0----|
|------0-------0---------0--------0------|
|----0-------0---------0--------0--------|
|----------------------------------------|
|-1--------1--------3---------3----------|


|--------------------------------------|
|-----------1--------1-----------1-----|
|--------0---------0----------0--------|
|-----2----------0---------0-----------|
|--3----------2---------0--------------|
|--------------------------------------|


                   Quiero despertar, te quiero encontrar y me quiero enamorar
|-----------------------------------------------------|
|------------0--------3---------3----------3--------3-|
|---------0---------0---------0----------0--------0---|
|------0----------0---------0----------0--------0-----|
|-----------------------------------------------------|
|--3-----------2----------2---------2--------2--------|

|----------------------------------------|
|--------1-------1---------0--------0----|
|------0-------0---------0--------0------|
|----0-------0---------0--------0--------|
|----------------------------------------|
|-1--------1--------3---------3----------|


|--------------------------------------|
|-----------1--------1-----------1-----|
|--------0---------0----------0--------|
|-----2----------0---------0-----------|
|--3----------2---------0--------------|
|--------------------------------------|

              Quiero despertar, te quiero encontrar y me quiero enamorar

|-----------------------------------------------------
|------------0--------3---------3----------3--------3-
|---------0---------0---------0----------0--------0---
|------0----------0---------0----------0--------0-----
|-----------------------------------------------------
|--3-----------2----------2---------2--------2--------

|---------------------------------------0-|
|--------1-------1---------0--------0---1-|
|------0-------0---------0--------0-----0-|
|----0-------0---------0--------0-------2-|
|---------------------------------------3-|
|-1--------1--------3---------5---------0-|

Dedico esta rola ami novia Dalia T Amo* [3

El material contenido en esta página es para exclusivo uso privado y con propósito meramente educativo, se prohibe su reproducción y uso con fines comerciales