Luna llena

Acordes de la canción 'Luna llena' de Abel Pintos

Versiones de esta canción: Tablatura para guitarra (TAB) - Letra y acordes

INTRO:

e|-5---5-3-3-|-5---5-3-3-|-5-------------|
b|---5-------|---5-------|---5-5-3-3-5---|
g|-----------|-----------|-------------5-|
D|-----------|-----------|---------------|
A|-----------|-----------|---------------|
E|-----------|-----------|---------------|


e|-8----8-7-7-|-8----8-7-7-|-8----------------|
b|---10-------|---10-------|---10-10-8-8-10---|
g|------------|------------|----------------9-|
D|------------|------------|------------------|
A|------------|------------|------------------|
E|------------|------------|------------------|


Am     G      Am      G         Am          G        Am
Era la luna llena que asomaba su carita en la Cordillera.
Am     G      Am      G         Am          G        Am
Eran los mil colores que tenia tu carita en la noche aquella.

Dm                   Em
Era tu color lo que sentia,
Dm                      Em
o era que talvez ya no seria,
       E
quien soy.

e|-5---5-3-3-|-5---5-3-3-|-5-------------|
b|---5-------|---5-------|---5-5-3-3-5---|
g|-----------|-----------|-------------5-|
D|-----------|-----------|---------------|
A|-----------|-----------|---------------|
E|-----------|-----------|---------------|


e|-8----8-7-7-|-8----8-7-7-|-8----------------|
b|---10-------|---10-------|---10-10-8-8-10---|
g|------------|------------|----------------9-|
D|------------|------------|------------------|
A|------------|------------|------------------|
E|------------|------------|------------------|



Am     G      Am      G         Am          G        Am
Era la luna llena que asomaba su carita en la Cordillera.[ay si]
Am     G      Am      G         Am          G        Am
Eran los mil colores que tenia tu carita en la noche aquella.

Dm                   Em
Era tu color lo que sentia,
Dm                   Em
o era que talvez ya no seria,
       E
quien soy.


Am-G


Larairaira,larairaira,
larairaira,larairaira,
larairaira,larairaira,
larairaira,larairairaaa.

Era la luna llena que asomaba su carita en la Cordillera.
Eran los mil colores que tenia tu carita en la noche aquella.

Era la luna llena que asomaba su carita en la Cordillera.[ay si]
Eran los mil colores que tenia tu carita en la noche aquella.

Era tu color lo que sentia,
o era que talvez ya no seria,
quien soy...
Versión 2 - Luna llena (Letra y acordes)
 G      F     G
Era la luna llena
 G       F       G
que asomaba su carita
      F         A    A   
en la cordillera HAY-HAY-HAY

 
 G      F     G
Era la luna llena
 G       F       G
que asomaba su carita
      F           A    A   
en la noche aquella HAY-HAY-HAY

  G              A
Era tu dolor lo que sentia
  G                 A
y era que tal ves no me querias
  E
Y estoy.

LA ra LA lla . LA ra LA ra

  E
y estoy.


La Ra la la ... se hace dandole golpes a las ultimas 3 
cuerdas en G

Esto es todo contacto: la875@hotmail.com

El material contenido en esta página es para exclusivo uso privado y con propósito meramente educativo, se prohibe su reproducción y uso con fines comerciales