La Llave

Acordes de la canción 'La Llave' de Abel Pintos

Versiones de esta canción: Letra y acordes - Tablatura para guitarra (TAB) - Letra y acordes

Intro
D - A - A - E
D - A - E

A                  E
La soledad se hace carne en mi
     D                  A     C#7
y la noche parece un desierto
      F#m                B7
pero llegas tú, con tu inmensa luz
        D                  E
y te declaras dueña de mis sueños.

A                    E
El tiempo viste un color azul
    D                      A    C#7
parecido a un suspiro del cielo,
      F#m             B7
de solo saber, que te voy a ver
        D                 E         E7
y a regalarte todos mis momentos.

      A                     E
vas a verme llegar, y vas a oír mi canción,
         D                   A     C#7
vas a entrar sin pedirme la llave,
      F#m                   B7
la distancia y el tiempo no saben
                D       E7     A
la falta que le haces a mi corazón.

Interludio
G - D - A - E
G - D - E - E7

La soledad se hace carne en mi
y la noche parece un desierto
pero llegas tú, con tu inmensa luz
y te declaras dueña de mis sueños.

El tiempo viste un color azul
parecido a un suspiro del cielo,
de solo saber, que te voy a ver
y a regalarte todos mis momentos.

Vas a verme llegar, vas a oír mi canción,
vas a entrar sin pedirme la llave,
la distancia y el tiempo no saben
la falta que le haces a mi corazón.


       F#m                B7
Porque puedo callar mis palabras
      D                     A    C#7
Y escucharte en el viento hablar
       F#m              B7
porque puedo soñar para verte
    D               E7
y tenerte aún sin soñar.

      B                   F#
vas a verme llegar, vas a oír mi canción,
         E                   B     D#7
vas a entrar sin pedirme la llave,
      G#m                   C#7
la distancia y el tiempo no saben
                E       F#7     B
la falta que le haces a mi corazón.

      B                   F#
vas a verme llegar, vas a oír mi canción,
         E                   B     D#7
vas a entrar sin pedirme la llave,
      G#m                   C#7
la distancia y el tiempo no saben
                E       F#7             E    Em   B
la falta que le haces a mi……………………. corazón.


C#7: x4342x  (Dom de F#m)
D#7: x6564x  (Dom de G#m)

Esta es nuestra primer transcripción
y hemos elegido a Abel porque disfrutamos mucho
de su música.

Pato y Gastón - Río Cuarto, Córdoba.
Versión 2 - La Llave (Tablatura para guitarra (TAB))
Les dejo la tab de lo que hizo Abel con su guitarra en la versión de
La Llave que presentó en el programa Encuentro En El Estudio.


INTRO

  Asus2            C#sus2           F#m
|-------------|  |-------------|  |-------------|
|---------0---|  |---------4---|  |---------2---|
|-----2-----2-|  |-----6-----6-|  |-----2-----2-|
|---2---2-----|x4|---6---6-----|x4|---4---4-----|x2
|-0-----------|  |-4-----------|  |-------------|
|-------------|  |-------------|  |-2-----------|

  D                            E                E/A
|-------------0h2p0------0-| |-------------|  |-------------------------|
|-----3---3---------3------| |---------0---|  |-------------------------|
|---2---2---2----------2---| |-----1-----1-|  |-----1---1---1---1---1---|
|-0------------------------| |---2---2-----|x2|---2---2---2---2---2---2-|
|--------------------------| |-------------|  |-0-----------------------|
|--------------------------| |-0-----------|  |-------------------------|

  Asus2            C#sus2           F#m
|-------------|  |-------------|  |-------------|
|---------0---|  |---------4---|  |---------2---|
|-----2-----2-|  |-----6-----6-|  |-----2-----2-|
|---2---2-----|x4|---6---6-----|x4|---4---4-----|x2
|-0-----------|  |-4-----------|  |-------------|
|-------------|  |-------------|  |-2-----------|

  D                            E
|-------------0h2p0------0-| |-------------|  |---|
|-----3---3---------3------| |---------0---|  |---|
|---2---2---2----------2---| |-----1-----1-|  |---|
|-0------------------------| |---2---2-----|x2|---|
|--------------------------| |-------------|  |---|
|--------------------------| |-0-----------|  |-0-|



1° ESTROFA

  Asus2                          E
|-------------------0-|        |-------------------0-|
|-------------0-------|        |-------------0-------|
|-------2--------2----|        |-------1--------1----|
|----2-----2----------|        |----2-----2----------|
|-0-------------------|        |---------------------|
|---------------------|        |-0-------------------|
           La soledad   se hace carne en mí

         Dsus2                   Asus2
       |-------------0-|       |-------------0-|
       |-----3---3-----|       |---------0-----|
       |---2---2---2---|       |-----2-----2---|
       |-0-------------|       |---2---2-------|
       |---------------|       |-0-------------|
       |---------------|       |---------------|
y la nocheeeee  parece un desierto

             F#m                        Bsus2
          |--------------------------|-------------2-|
          |---------2------------2---|---------2-----|
          |-----2-----2------2-----2-|-----4-----4---|
          |---4---4--------4---4-----|---4---4-------|
          |--------------------------|-2-------------|
          |-2------------2-----------|---------------|
pero llegas tu                   con tu inmensa luz

         D                      E
       |-------------2-|      |-------------|
       |-----3---3-----|      |---------0---|
       |---2---2---2---|      |-----1-----1-|
       |-0-------------|      |---2---2-----|x2
       |---------------|      |-------------|
       |---------------|      |-0-----------|
y te declaras dueña de mis sueños.



2° ESTROFA

  Asus2                            E
|------------------------0-|     |-------------0-|
|----------------0---------|     |---------0-----|
|---------2----------2-----|     |-----1-----1---|
|-----2------2-------------|     |---2---2-------|
|-0------------------------|     |---------------|
|--------------------------|     |-0-------------|
             El tiempo viste un color azul

     Dsus2                     Asus2
   |--------------0-|        |-------------0-----0---|
   |-----3---3------|        |---------0-----0-----0-|
   |---2---2---2----|        |-----2-----2-----2-----|
   |-0--------------|        |---2---2---------------|
   |----------------|        |-0---------------------|
   |----------------|        |-----------------------|
parecido a un suspiro del cieeeeeloooooo          de

   F#m                        Bsus2
 |--------------------------|---2---|
 |---------2------------2---|---2---|
 |-----2-----2------2-----2-|---4---|
 |---4---4--------4---4-----|---4---|
 |--------------------------|---2---|
 |-2------------2-----------|-------|
solo saber              que te voy a ver

         D                          E
       |-------------2-|          |----------------------------|
       |-----3---3-----|          |---------0-----------0------|
       |---2---2---2---|          |-----1-----1-----1-----1----|
       |-0-------------|          |---2---2-------2---2--------|
       |---------------|          |----------------------------|
       |---------------|          |-0-----------0------------0-|
y a regalarte todos mis...  momentoooooooooooooooooooooooos



ESTRIBILLO

         Asus2                     E
       |-------------------------|--------------------------|
       |---------0-----------0---|---------0------------0---|
       |-----2-----2-----2-----2-|-----1-----1------1-----1-|
       |---2---2-------2---2-----|---2---2--------2---2-----|
       |-0-----------0-----------|--------------------------|
       |-------------------------|-0------------0-----------|
vaaas a verme  llegar,      vas a oír mi   canción,    vas a

    Dsus2                   Asus2
  |-------------0-|       |-------------|
  |-----3---3-----|       |---------0---|
  |---2---2---2---|       |-----2-----2-|
  |-0-------------|       |---2---2-----|
  |---------------|       |-0-----------|
  |---------------|       |-------------|
entrar  sin  pedirme.. la llavee

  Asus2         F#m                        Bsus2
|-------------|--------------------------|-------------|
|---------0---|---------2------------2---|---------2---|
|-----2-----2-|-----2-----2------2-----2-|-----4-----4-|
|---2---2-----|---4---4--------4---4-----|---4---4-----|
|-0-----------|--------------------------|-2-----------|
|-------------|-2------------2-----------|-------------|
       la  distancia y el tiempo no sa---ben,       la

  Bsus2          D                E7             Asus2
|-------------|-------------2---|-----------0---|-------------|
|---------2---|--------3------3-|-------0-----0-|---------0---|
|-----4-----4-|----(2)---2------|---(1)---1-----|-----2-----2-|
|---4---4-----|--0--------------|---------------|---2---2-----|
|-2-----------|-----------------|-2-------------|-0-----------|
|-------------|-----------------|---------------|-------------|
 falta que le haces,        a   miii       coraazón.

 E              Asus2                      E
-------------|---------------------------|---------------|
---------0---|----------0------------0---|---------0-----|
-----1-----1-|------2-----2------2-----2-|-----1-----1---|
---2---2-----|----2---2--------2---2-----|---2---2-------|
-------------|--0------------0-----------|---------------|
-0-----------|---------------------------|-0-----------0-|
      Vas   a  verme llegar,       vas a oír mi   canción, y vas

    Dsus2                   Asus2
|------------------0-|       |-------------|
|------3-----3-------|       |---------0---|
|---2-----2-----2----|       |-----2-----2-|
|-0------------------|       |---2---2-----|
|--------------------|       |-0-----------|
|--------------------|       |-------------|
a entrar  sin  pedirme..  la llavee

  Asus2         F#m                        Bsus2
|-------------|--------------------------|-------------|
|---------0---|---------2------------2---|---------2---|
|-----2-----2-|-----2-----2------2-----2-|-----4-----4-|
|---2---2-----|---4---4--------4---4-----|---4---4-----|
|-0-----------|--------------------------|-2-----------|
|-------------|-2------------2-----------|-------------|
       la  distancia y el tiempo no sa---ben,       la

  Bsus2          D                E7
|-------------|-------------2---|-----------0---|
|---------2---|--------3------3-|-------0-----0-|
|-----4-----4-|----(2)---2------|---(1)---1-----|
|---4---4-----|--0--------------|---------------|
|-2-----------|-----------------|-2-------------|
|-------------|-----------------|---------------|
 falta que le haces,        a   miii       coraazón.

Enseguida rasguea estos acordes:

G - D - A - E
G - D - E

Y ya en la segunda parte no toca él. Los arreglos que se escuchan
son de la guitarra eléctrica (y no intenté sacarlos jaja).


Les dejo las acordes que pueden sonar "raros":
 Asus2      C#sus2        E/A        Dsus2       Bsus2
|--0--|     |--4--|     |--0--|     |--0--|     |--2--|
|--0--|     |--4--|     |--0--|     |--3--|     |--2--|
|--2--|     |--6--|     |--1--|     |--2--|     |--4--|
|--2--|     |--6--|     |--2--|     |--0--|     |--4--|
|--0--|     |--4--|     |--0--|     |--x--|     |--2--|
|--0--|     |--x--|     |--x--|     |--x--|     |--x--|


Eso es todo. Espero les sirva y si encuentran errores avisen!
Versión 3 - La Llave (Letra y acordes)
LA                 MI 
 La soledad se hace carne en mi
      RE                  DO#7
 y la noche parece un desierto
      FA#m                 SI 
 pero llegas tu, con tu inmensa luz
        SIm          RE     MI 
 y te declaras dueña de mis sueños


 El tiempo viste un color azul
 parecido a un suspiro del cielo
 de solo saber, que te voy a ver
 y a regalarte todos mis momentos

           ESTRIBILLO

       LA                   MI 
 Vas a verme llegar, vas a oir mi canción
         RE                  LA 
 vas a entrar sin pedirme la llave
       FA#m                  SI 
 la distancia y el tiempo no saben
                 RE      MI     LA 
 la falta que le haces a mi corazón - BIS

 Acordes - Solo de guitarra:
 SolM - ReM - LaM - MiM - SolM - ReM - LaM


 (se repite desde arriba hasta el estribillo)

        FA#m               SI 
 Porque puedo callar mis palabras
       RE                  LA 
 y escucharte en el viento hablar
        FA#m             SI 
 porque puedo soñar para verte
   RE              MI 
 y tenerte aun sin soñar

       SI                   FA# 
 Vas a verme llegar, vas a oir mi canción
         MI                  SI 
 vas a entrar sin pedirme la llave
       SOL#m                 DO# 
 la distancia y el tiempo no saben
                 MI      FA#     SI 
 la falta que le haces a mi corazón - BIS


Bueno gente… aquí estoy de nuevo espero que les guste esta cancion,
es del nuevo disco de Abel, los acordes que puse son los basicos…
cualquier duda me avisan. un abrazo.

El material contenido en esta página es para exclusivo uso privado y con propósito meramente educativo, se prohibe su reproducción y uso con fines comerciales