El Alcatraz

Acordes de la canción 'El Alcatraz' de Abel Pintos

Versiones de esta canción: Tablatura para guitarra (TAB) - Letra y acordes

INTRO:

e|---------|----|----------|
b|---------|----|----------|
g|---------|----|----------|
D|-----4-2-|-X3-|-----4----|
A|-0-4-5-0-|----|-0-4-5----|
E|---------|----|----------|

             A     E7    A
e|-5-5-5-5-5-0-------------|
b|-------------2-5-5-3-5---|
g|-----------------------2-|
D|-------------------------|
A|-------------------------|
E|-------------------------|

             A     E7    A
e|-5-5-5-5-5-0-------------|
b|-------------2-5-5-3-5---|
g|-----------------------2-|
D|-------------------------|
A|-------------------------|
E|-------------------------|

   A           E7        A
e|-----------------2-------|
b|---2-3---2-5-3-5---3-5-2-|
g|-2-----4-----------------|
D|-------------------------|
A|-------------------------|
E|-------------------------|

   A           E7      A A A A
e|-------------------------|
b|---2-3---2-5---2-3-------|
g|-2-----4-----4-----4-2---|
D|-------------------------|
A|-------------------------|
E|-------------------------|


A                    D             A
Al son de la tambora y clarines al compás
     D          A              E                 A
Yo encenderé tu vela que no me quema, que el alcatraz
     D          A              E7                A
Yo encenderé tu vela que no me quema, que el alcatraz


            E             A
A que no me quema, el alcatraz
             E7           A
a que no me quema, el alcatraz
             E            A
a que si me quema, el alcatraz
             E7           A
a que si me quema, el alcatraz
             E            A
A que no me quema, el alcatraz
             E7           A
a que no me quema, el alcatraz

             A     E7    A
e|-5-5-5-5-5-0-------------|
b|-------------2-5-5-3-5---|
g|-----------------------2-|
D|-------------------------|
A|-------------------------|
E|-------------------------|

             A     E7    A
e|-5-5-5-5-5-0-------------|
b|-------------2-5-5-3-5---|
g|-----------------------2-|
D|-------------------------|
A|-------------------------|
E|-------------------------|

   A           E7        A
e|-----------------2-------|
b|---2-3---2-5-3-5---3-5-2-|
g|-2-----4-----------------|
D|-------------------------|
A|-------------------------|
E|-------------------------|

   A           E7      A A A A
e|-------------------------|
b|---2-3---2-5---2-3-------|
g|-2-----4-----4-----4-2---|
D|-------------------------|
A|-------------------------|
E|-------------------------|

A                          D              A
Salgan todos los negritos, salgan todos a la pampa
     D             A           E             A
unos vallan con su pico, otros vallan con su nampa
     D             A           E7            A
unos vallan con su pico, otros vallan con su nampa

            E             A
A que no me quema, el alcatraz
             E7           A
a que no me quema, el alcatraz
             E            A
a que si me quema, el alcatraz
             E7           A
a que si me quema, el alcatraz
             E            A
A que no me quema, el alcatraz
             E7           A
a que no me quema, el alcatraz

             A     E7    A
e|-5-5-5-5-5-0-------------|
b|-------------2-5-5-3-5---|
g|-----------------------2-|
D|-------------------------|
A|-------------------------|
E|-------------------------|

             A     E7    A
e|-5-5-5-5-5-0-------------|
b|-------------2-5-5-3-5---|
g|-----------------------2-|
D|-------------------------|
A|-------------------------|
E|-------------------------|

   A           E7        A
e|-----------------2-------|
b|---2-3---2-5-3-5---3-5-2-|
g|-2-----4-----------------|
D|-------------------------|
A|-------------------------|
E|-------------------------|

   A           E7      A A A A
e|-------------------------|
b|---2-3---2-5---2-3-------|
g|-2-----4-----4-----4-2---|
D|-------------------------|
A|-------------------------|
E|-------------------------|

 A                   D            A
Acércate Francisca y tálame el apacal
   D               A                 E                 A
yo te viera sin correales, que no me quema, que el alcatraz
   D               A                 E7                A
yo te viera sin correales, que no me quema, que el alcatraz

            E             A
A que no me quema, el alcatraz
             E7           A
a que no me quema, el alcatraz
             E            A
a que si me quema, el alcatraz
             E7           A
a que si me quema, el alcatraz
             E            A
A que no me quema, el alcatraz
             E7           A
a que no me quema, el alcatraz

             A     E7    A
e|-5-5-5-5-5-0-------------|
b|-------------2-5-5-3-5---|
g|-----------------------2-|
D|-------------------------|
A|-------------------------|
E|-------------------------|

             A     E7    A
e|-5-5-5-5-5-0-------------|
b|-------------2-5-5-3-5---|
g|-----------------------2-|
D|-------------------------|
A|-------------------------|
E|-------------------------|

   A           E7        A
e|-----------------2-------|
b|---2-3---2-5-3-5---3-5-2-|
g|-2-----4-----------------|
D|-------------------------|
A|-------------------------|
E|-------------------------|

   A           E7      A A A A
e|-------------------------|
b|---2-3---2-5---2-3-------|
g|-2-----4-----4-----4-2---|
D|-------------------------|
A|-------------------------|
E|-------------------------|

   A                           D          A
Ay chúcaro susto tengo, ya me voy a desmayar
   A                              D          A
Ay que chucaro susto tengo, ya me voy a desmayar
   D                  A                  E                 A
Al ver que esta negra vieja no quiere quemarme, que el alcatraz
   D                  A                  E7                A
Al ver que esta negra vieja no quiere quemarme, que el alcatraz

            E             A
A que no me quema, el alcatraz
             E7           A
a que no me quema, el alcatraz
             E            A
a que si me quema, el alcatraz
             E7           A
a que si me quema, el alcatraz
             E            A
A que no me quema, el alcatraz
             E7           A
a que no me quema, el alcatraz

             A     E7    A
e|-5-5-5-5-5-0-------------|
b|-------------2-5-5-3-5---|
g|-----------------------2-|
D|-------------------------|
A|-------------------------|
E|-------------------------|

             A     E7    A
e|-5-5-5-5-5-0-------------|
b|-------------2-5-5-3-5---|
g|-----------------------2-|
D|-------------------------|
A|-------------------------|
E|-------------------------|

   A           E7        A
e|-----------------2-------|
b|---2-3---2-5-3-5---3-5-2-|
g|-2-----4-----------------|
D|-------------------------|
A|-------------------------|
E|-------------------------|

   A           E7      A E7 A
e|-------------------------|
b|---2-3---2-5---2-3-------|
g|-2-----4-----4-----4-2---|
D|-------------------------|
A|-------------------------|
E|-------------------------|
Versión 2 - El Alcatraz (Letra y acordes)
Introducción:
(LA LA/DO# RE MI) 4 Veces
(MI LA) 8 Veces

LA                           RE          LA
  Al son de la tambora y clarines al compás
      RE        LA              MI                LA
Yo encenderé tu vela que no me quema, que el alcatraz
      RE        LA              MI                LA
Yo encenderé tu vela que no me quema, que el alcatraz


             MI            LA
A que no me quema, el alcatraz
             MI            LA
a que no me quema, el alcatraz
             MI            LA
a que si me quema, el alcatraz
             MI            LA
a que si me quema, el alcatraz
             MI            LA
A que no me quema, el alcatraz
             MI            LA
a que no me quema, el alcatraz

LA (MI LA) 3 veces
(MI LA) 4 veces

Salgan todos los negritos, salgan todos a la pampa
unos vallan con su pico, otros vallan con su nampa
unos vallan con su pico, otros vallan con su nampa

A que no me quema...

Acércate Francisca y tálame el apacal
yo te viera sin correales, que no me quema, que el alcatraz
yo te viera sin correales, que no me quema, que el alcatraz

A que no me quema...

Ay chúcaro susto tengo, ya ne voy a desmayar
Ay que chucaro susto tengo, ya me voy a desmayar
Al ver que esta negra vieja no quiere quemarme, que el alcatraz
Al ver que esta negra vieja no quiere quemarme, que el alcatraz

A que no me quema...
______________________________________________________
======   ======   ======   ======
xo       x    x   xxo      o   oo
||||||   ||||||   ||||||   |||o||
||ooo|   ======   |||o|o   |oo|||
||||||   ||||||   ||||o|   ||||||
||||||   |o||||   ||||||   ||||||
654321   654321   654321   654321
  LA     LA/DO#     RE       MI

El material contenido en esta página es para exclusivo uso privado y con propósito meramente educativo, se prohibe su reproducción y uso con fines comerciales