Bella flor

Acordes de la canción 'Bella flor' de Abel Pintos

Versiones de esta canción: Tablatura para guitarra (TAB) - Letra y acordes - Tablatura para bajo (bass tab)

BUENAS..!!!! COMO VA??? ACA LES DEJO LA INTRO QUE HACE CON LA
QUENA, PERO TAMBIEN SE PUEDE HACER CON LA GUITARRA!!!LOS ACOR-
DES DEL OTRO TEMA ESTAN BIEN,BUSQUELON AHI!!!

               MI                      RE

1-/----10-12--/----10-12---/----10-12-14-12-10----/
2-/-12--------/-12---------/-12----------------12-/
3-/-----------/------------/----------------------/

         DO                RE          MI 

1-/------------------/-------10-12-10-------/
2-/-12-8-10-12-8-10--/-10-12----------13-12-/
3-/------------------/----------------------/




UN ABRAZO A TODOS, ESPERO QUE LES SIRVA!!!
Versión 2 - Bella flor (Letra y acordes)
     MIm
bella flor de color
        RE
de las almas sin dolor
      DO
para vos mi cancion
      RE         MIm
parte de mi corazon

MIm RE DO RE MIm (x2)

       MIm
bella flor de color
        RE
de las almas sin dolor
      DO
dejame quiero ser
      RE         MIm
dueño de tu corazon

quiero ir navegar
       RE
confundirnos en el mar
    DO
y llegar al lugar
          RE        MIm
donde un sueño viviras

brillando la luna
    RE
la arena y el mar
   DO
y un colchon de estrellas
    RE
en la imencidad
 MIm
con su luz eterna
     RE
nos coronaran
  DO
dibujando al tiempo
   RE
la noche ideal

ESTRIBILLO
  SOL     RE       MIm
y vos... y yo... mirandonos
             SOL    RE
mientras la lluvia cae
   MIm
mojando nuestras almas
  SOL      RE         MIm
bailar... asi... me hara sentir
           SOL
que ya no estoy
    RE        MIm
que voy... volando

MIm RE DO RE MIm

bella flor de color
de las almas sin dolor
dejame quiero ser
dueño de tu corazon
quiero ir navegar
confundirnos en el mar
y llegar al lugar
donde un sueño viviras
brillando la luna
la arena y el mar
y un colchon de estrellas
en la imencidad
con su luz eterna nos coronaran
dibujando al tiempo
LA noche ideal

ESTRIBILLO

MIm RE DO RE MIm

ESTRIBILLO
...volando
bailar... asi... me hara sentir
que ya no estoy
que voy... volando

MIm REMImO RE MIm ... mim(fin)


espero que les guste y que la dosfruten...
cualquier cosa escriban
Versión 3 - Bella flor (Tablatura para bajo (bass tab))
Hola gente les dejo la tablatura de Bella flor en la versión rock que hace Abel
en vivo.

Intro
E|-0-0000~|

Primer verso
G|----------------------------------------|
D|----------------------------------------|
A|-----------2-2--2-2--0-0--0-0--2-2--2-2-|
E|-0-0--0-0-------------------------------|

Brillando la luna... (Segundo verso)
G|------------------------------|
D|------------------------------|
A|--------2-2222~0-0000~02-2222~|
E|-0-0000~----------------------|

Y vos. Y yo
G|--------------------------------| (x2)
D|--------------------------------|
A|----55-77777--------55555-77777-|
E|-33-----------33333-------------|

Se repite todo de nuevo y después de vuelve a repetir esta parte:

Y vos. Y yo
G|--------------------------------| (x2)
D|--------------------------------|
A|----55-77777--------55555-77777-|
E|-33-----------33333-------------|

El material contenido en esta página es para exclusivo uso privado y con propósito meramente educativo, se prohibe su reproducción y uso con fines comerciales