Algo contigo

Tabs, letra y acordes de 'Algo contigo' por Vicentico

Versiones disponibles: Tablatura para guitarra (TAB) - Tablatura para guitarra (TAB) - Letra y acordes - Letra y acordes - Letra y acordes - Tablatura para bajo (bass tab)

Me hubiese gustado dedicar esta cancion a una chica, amiga mia,
la cual me gusta mucho...
Esta es mi transcripcion de la canción "algo contigo".
Me tomo varios dias sacarla por completo, pero aun así. Sé que se
asemeja bastante a la cancion original. Espero les guste...

Intro:
                                                                 Hace-
e--3--------3-----|--3--------3-----|--3--------3-----|--3--------3-----|
B---3-3------3-3--|---3-3------3-3--|---3-3------3-3--|---3-3------3-3--|
G----4--4/5---5---|----4--4/5---5---|----4--4/5---5---|----4--4/5---5---|
D-4---------------|-4---------------|-4---------------|-4---------------|
A-----------------|-----------------|-----------------|-----------------|
E-3------3--------|-3------3--------|-3------3--------|-3------3--------|

-Falta que te diga que me muero por tener algo contigo...

     SOL         LAm/FA#           SI        MIm RE#m7  RE7
e--3------3----|---------------|-------------|--|----|--0/1/0---|
B----3-3---3-3-|----2------4---|---------3/5-|3-|----|--1-----1-|
G-----4-----4--|----2------2-2-|-------0-----|--|--6-|----------|
D-4------4-----|----2------4-4-|-----4-------|--|--5-|----------|
A--------------|-------0-2-----|---2---------|2-|-6-6|--0-------|
E-3------3-----|-2-------------|-0-----------|--|----|----------|

 SOL7         DOmaj7     SIm7   MI7    LAm
|-----------|-----3-----|---0-|-0--0-|----------------------------------|
|-----5-----|-5-----5---|--3--|-0-0--|-1-----0/1---------1--1---0/1-----|
|--0--4-----|-4-4----4--|-2---|-1----|--2--------2----------------2-2---|
|-----0-----|-5--5------|-----|------|---2--------2---------------2--2--|
|-----5-0-2-|-3--------0|2----|-2----|-0---0--------0/2-3--2--0---0---0-|
|0-3--------|-----------|-----|------|----------------------------------|


  Ya No puedo acercarme....

    DOm            FA/RE#     SOL    RE/FA#   FA        MI7
|-------------|-----5-------|----3--|-----2-|----1-|-------0----|
|--4----3/4---|----4---3-3--|-----3-|-------|------|------3-3---|
|--2-2---2-2--|---5---5-5-5-|-3/4--4|--2/3--|-1/2--|-----1---1--|
|--3--3--3--3-|--3---3------|-------|-------|------|----2-----2-|
|--3-----3----|-------------|-------|-------|------|---2--------|
|-------------|-------------|-3-----|--2----|-1----|-0----------|

   LAm7                  LA7                        RE7
e--------------|----------------------------------|------||
B-0/1----0/1---|--0/2-----0/2-----0/2------0/2----|----3-||
G----0------0--|---0--0-------0----0--0-------0---|---5--||
D--2--2------2-|---2---2-------2---2---2-------2--|--4---||
A--0---0-------|---0-----0------0--0-----0------0-|-5----||
E--------------|----------------------------------|------||


Hace falta que te diga que me muero por tener algo contigo.....

     SOL         LAm/FA#           SI        MIm RE#m7  RE7
e--3------3----|---------------|-------------|--|----|--0/1/0---|
B----3-3---3-3-|----2------4---|---------3/5-|3-|----|--1-----1-|
G-----4-----4--|----2------2-2-|-------0-----|--|--6-|----------|
D-4------4-----|----2------4-4-|-----4-------|--|--5-|----------|
A--------------|-------0-2-----|---2---------|2-|-6-6|--0-------|
E-3------3-----|-2-------------|-0-----------|--|----|----------|

              & es que no te has dado...

 SOL7         DOmaj7     SIm7   MI7    LAm
|-----------|-----3-----|---0-|-0--0-|----------------------------------|
|-----5-----|-5-----5---|--3--|-0-0--|-1-----0/1---------1--1---0/1-----|
|--0--4-----|-4-4----4--|-2---|-1----|--2--------2----------------2-2---|
|-----0-----|-5--5------|-----|------|---2--------2---------------2--2--|
|-----5-0-2-|-3--------0|2----|-2----|-0---0--------0/2-3--2--0---0---0-|
|0-3--------|-----------|-----|------|----------------------------------|

 Ya No puedo continuar espiando  ...


   DOm         FA/RE#       SOL      RE/FA#   FA      MI7
|----------|-----5--------|----3---|------2-|----1-|-------0----|
|-4----3/4-|----4---3-3---|-----3--|--------|------|------3-3---|
|-2-2---2--|---5---5-5-5--|-3/4--4-|---2/3--|-1/2--|-----1---1--|
|-3--3--3--|--3---3-------|--------|--------|------|----2-----2-|
|-3-----3--|--------------|--------|--------|------|---2--------|
|----------|--------------|-3------|---2----|-1----|-0----------|

 Ya No sé, con que inocente escusa pasar por tu casa.....

    LAm                RE7            SIm7        MI7
e-----------------|-0/2-----0/2----|-----0------|------0-------||
B--0/1-----0/1----|--1--1-------1--|----3-3-----|-----3-3------||
G---2--2------2---|--2---2-------2-|---2---2----|-----1--1-----||
D---2---2------2--|--0-----0-------|------------|----2----2----||
A---0-----0-----0-|----------------|-2-------0--|---2----------||
E-----------------|----------------|------------|-0------------||

 Ya me quedan muy pocos caminos....

    LAm              DOm         SOL    RE/FA#   FA      MI7
e----------------|------------|----3---|-----2-|----1-|-------0----|
B-1----0/1-1-----|-4----3/4---|-----3--|-------|------|------3-3---|
G--2---------2---|-2-2---3--2-|-3/4--4-|--2/3--|-1/2--|-----1---1--|
D---2---------2--|-3--3--2---3|--------|-------|------|----2-----2-|
A-0---0--------0-|-3-----3----|--------|-------|------|---2--------|
E----------------|------------|-3------|--2----|-1----|-0----------|

    LAm               RE                   SOL
e-----------------|-0/2-----0/2----|------3----------------||
B--0/1-----0/1----|--3--3-------3--|-----3----0-1-1--0-1-3-||
G---2--2------2---|--2---2-------2-|----4----2-------------||
D---2---2------2--|--0-----0------0|---5-------------------||
A---0-----0-------|----------------|-----------------------||
E-----------------|----------------|-3---------------------||

Hace Falta que te diga....

 SOL         LAm/FA#       SI      MIm RE#m7  RE7
e--3-----|-------------|-----------|--|----|--0/1/0---|
B--3-----|-2-------4---|-------3/5-|3-|----|--1-----1-|
G--4-----|-2-------2---|-----0-----|--|--6-|----------|
D--5-----|-2-------4---|----4------|--|--5-|----------|
A--5-----|-------0-2---|--2--------|2-|6--6|--0-------|
E--3-----|-2-----------|-0---------|--|----|----------|

              & es que no te has dado...

 SOL7         DOmaj7     SIm7   MI7    LAm
|-----------|-----3-----|---0-|-0--0-|----------------------------------|
|-----5-----|-5-----5---|--3--|-0-0--|-1-----0/1---------1--1---0/1-----|
|--0--4-----|-4-4----4--|-2---|-1----|--2--------2----------------2-2---|
|-----0-----|-5--5------|-----|------|---2--------2---------------2--2--|
|-----5-0-2-|-3--------0|2----|-2----|-0---0--------0/2-3--2--0---0---0-|
|0-3--------|-----------|-----|------|----------------------------------|

 Ya no puedo acercarme....

   DOm         FA/RE#       SOL      RE/FA#   FA      MI7
|----------|-----5--------|----3---|------2-|----1-|-------0----|
|-4----3/4-|----4---3-3---|-----3--|--------|------|------3-3---|
|-2-2---2--|---5---5-5-5--|-3/4--4-|---2/3--|-1/2--|-----1---1--|
|-3--3--3--|--3---3-------|--------|--------|------|----2-----2-|
|-3-----3--|--------------|--------|--------|------|---2--------|
|----------|--------------|-3------|---2----|-1----|-0----------|

    LAm7             RE7            SIm7           MI7
e---------------|-0/2-----0/2----|-----0------|------0-------|
B-0/1----0/1----|--1--1-------1--|----3-3-----|-----3-3------|
G----0------0---|--2---2-------2-|---2---2----|-----1--1-----|
D--2--2------2--|--0-----0-------|------------|----2----2----|
A--0---0------0-|----------------|-2-------0--|---2----------|
E---------------|----------------|------------|-0------------|

 Ya me quedan muy pocos caminos y aunque pueda parecerte un desatino.....

    LAm              DOm         SOL    RE/FA#   FA      MI7
e----------------|------------|----3---|-----2-|----1-|-------0----|
B-1----0/1-1-----|-4----3/4---|-----3--|-------|------|------3-3---|
G--2---------2---|-2-2---3--2-|-3/4--4-|--2/3--|-1/2--|-----1---1--|
D---2---------2--|-3--3--2---3|--------|-------|------|----2-----2-|
A-0---0--------0-|-3-----3----|--------|-------|------|---2--------|
E----------------|------------|-3------|--2----|-1----|-0----------|

   LAm               RE               SOL
e-----------------|-0/2-----0/2----|--3------3----||
B--0/1-----0/1----|--3--3-------3--|---3-3----3-3-||
G---2--2------2---|--2---2-------2-|----4------4--||
D---2---2------2--|--0-----0------0|-4------4-----||
A---0-----0-------|----------------|--------------||
E-----------------|----------------|-3------3-----||
Versión 2 - Algo contigo (Tablatura para guitarra (TAB))
mi nombre es hugo,algo contigo en tablatura, para mi esta igualita,
bueno aki les dejo ps mi correo es xbabyrastax0@hotmail.com si
quieren mas informacion. Para mi bonita ianin


   E.  E  S S S   E.  E  S S S    E.  E  S S S   E.  E  S S S
E||------3------3-------3------3-|------3------3-------3------3-|
B||---------3---3----------3---3-|---------3---3----------3---3-|
G||--4--------4---4g5--------5---|--4--------4---4g5--------5---|
D||------------------------------|------------------------------|
A||------------------------------|------------------------------|
E||--3--------------3------------|--3--------------3------------|


  E.  E  S S S   E.  E  S S S    E.  E  S S S   E.  E  S S S
------3------3-------3------3-|------3------3-------3------3-|
---------3---3----------3---3-|---------3---3----------3---3-|
--4--------4---4g5--------5---|--4--------4---4g5--------5---|
------------------------------|------------------------------|
------------------------------|------------------------------|
--3--------------3------------|--3--------------3------------|


  E.  E  S S S E.  Q    S    E.  E  E.  E.  E  E.
------3------3-----3----L-|--------------------2---|
---------3---3-----3----L-|------2------4----------|
--4--------4---4----------|------2------4----------|
--------------------------|--4---4------4----------|
--------------------------|--4--------------2------|
--3------------3----------|--2---------------------|


  E.  E  S  S  Q    S Q
----------------------2----|
---------3h-5p-3------2----|
------0-------------3------|
------2--------------------|
------2--------------------|
--0------------------------|

  S S S E.  E  E.  E.  E     E.  E  E  H        S
--0-1-0-------------------|---------3-------------|
--1-----1-----------------|------------5----------|
-------------------4------|------4----------------|
-------------------5------|--5--------------------|
-------------------2---0--|--3--------------------|
------------0--3---3------|---------------------0-|


  S E  S E  E.  E.  E  E
------------0---0------0--|
---------3------5---3-----|
-------4------------------|
--------------------------|
--------------------------|
--L-3---------------------|


  S E  S S S E  S S E  S S S S    H        S S S E  E.
--L----------------------------|------------------------|
---------1--------0-1------0---|--1------------0-1------|
----0--------0---------0-------|-------------0------0---|
----2------2-------------2-----|------------------------|
----3--3--------3------------3-|-----------3------------|
-------------------------------|------------------------|


  E  E.  E  Q    E  S E     E  E.  E  E  S Q.
-------------------------|------------------------|
-----5-----------5-------|---------------3-L------|
-----5---5----------5----|------------4-----------|
---------5--5---------5--|------------------------|
------------3------------|------------------------|
-------------------------|--0--3---3--------------|


 E.   E  E  E  Q    S E
----------3------------1--|
-------------3---------1--|
------/4--------4------2--|
---------------------0----|
--------------------------|
--------------------------|


  E  E.  E  E  S E.  E.     E  E  S S S S S S S E  S S S
---------0-------0-------|-------------------------------|
------------3--------3---|-----1--------------0-1--------|
---------------1---------|----------0---0--------------0-|
-----2-------------------|--------2-------2----------2---|
-----2-------------------|-----3------3-----3------3-----|
-------------------------|-------------------------------|


  E  E  S E  E  S S E  S S S    E  E  S E  E  S S E  S S S
-----------------------------|-----------------------------|
-----2------------0-2--------|-----2------------0-2--------|
--L--0----0----------------0-|--L--0----2----------------2-|
-----2-------2-----------2---|-----2-------2-----------2---|
--------3-------3------3-----|--------3-------3------3-----|
-----------------------------|-----------------------------|


  E  E.  E  E  S Q.
------------------------|---------|
------------1--3-L------|---------|
--L------2--------------|---------|
-----0------------------|---------|
------------------------|---------|
------------------------|---------|
Versión 3 - Algo contigo (Letra y acordes)
Algo Contigo
(Vicentico)


Intro:

e:-------3--------------3-------------3--------------3------|
B:---------3---3----------3---3---------3---3----------3---3|
G:----4------4------3/4-----4-------4-----4------3/4-----4--|
D:----------------------------------------------------------|
A:----------------------------------------------------------|
E:----3-------------3---------------3------------3----------|

SOL
¿HACE FALTA Q TE DIGA
LAm/FA#            SI          MIm    RE#m7 RE7  SOL7    
QUE ME MUERO POR TENER ALGO CONTIGO?
 DOmaj7
¿ES QUE NO TE HAS DADO CUENTA
      SIm7         MI7            LAm
DE LO MUCHO QUE ME CUESTA SER TU AMIGO?


      DOm                  FA/RE#
YA NO PUEDO ACERCARME A TU BOCA
      SOL      RE/FA#    FA  MI7
SIN DESEÁRTELA DE UNA MANERA LOCA,
 LAm7                 LA7
NECESITO CONTROLAR TU VIDA,
                                RE      RE7
SABER QUIÉN TE BESA Y QUIÉN TE ABRIGA...


¿HACE FALTA QUE TE DIGA
QUE ME MUERO POR TENER ALGO CONTIGO?
¿ES QUE NO TE HAS DADO CUENTA
DE LO MUCHO QUE ME CUESTA SER TU AMIGO?


      DOm                 FA/RE#
YA NO PUEDO CONTINUAR ESPIANDO
      SOL       RE/FA#  FA MI7
DÍA Y NOCHE TU LLEGAR ADIVINANDO
   LAm        RE7 
YA NO Sé CON QUÉ INOCENTE EXCUSA
  RE/DO      SIm7     MI7
PASAR POR TU CASA...  OH



      LAm                DOm   FA/RE#
YA ME QUEDAN MUY POCOS CAMINOS
         SOL       RE/FA#   FA  MI7
Y AUNQUE PUEDA PARECERTE UN DESATINO
   LAm                     RE            SOL
NO QUISIERA YO MORIRME SIN TENER ALGO CONTIGO.


¿HACE FALTA QUE TE DIGA
QUE ME MUERO POR TENER ALGO CONTIGO?
¿ES QUE NO TE HAS DADO CUENTA
DE LO MUCHO QUE ME CUESTA SER TU AMIGO?

      LAm                  DOm   FA/RE#
YA NO PUEDO ACERCARME A TU BOCA
      SOL      RE/FA#    FA  MI7
SIN DESEÁRTELA DE UNA MANERA LOCA,
 LAm7                 RE7
NECESITO CONTROLAR TU VIDA,
  RE/DO        SIm7             MI7
SABER QUIÉN TE BESA Y QUIÉN TE ABRIGA

     
YA ME QUEDAN MUY POCOS CAMINOS
Y AUNQUE PUEDA PARECERTE UN DESATINO
NO QUISIERA YO MORIRME SIN TENER ALGO CONTIGO.

Final: SOL LAm/FA#  MIm  MIm/RE  DOmaj7  SIm7  LAm7  RE


Antes de escribirme, si tienen alguna duda por las notas 
visiten el sitio www.chordfind.com, si no encuentran alguna 
entonces escribanme.
Versión 4 - Algo contigo (Letra y acordes)
G = 355433

Intro: G
e|---3--------3-------3---------3-----|
B|----3-3------3-3-----3-3-------3-3--|
G|-4---4--4/5---4---4---4---4/5---4---|
D|------------------------------------|
A|------------------------------------|
E|-3------3---------3-------3---------|

G                        F#m         B            Em  [Em - Ebm - Dm] - G
Hace falta que te diga que me muero por tener algo contigo
  C                            E                        Am
es que no te has dado cuenta de lo mucho que me cuesta ser tu amigo
Cm                       F             G          [G  -  F  -  E]
ya no puedo acercarme a tu boca, sin deseártela de una manera loca
     Am                        A                  D
necesito controlar tu vida, saber quién te besa y quién te abriga.

G                        F#m         B            Em  [Em - Ebm - Dm] - G
Hace falta que te diga que me muero por tener algo contigo
  C                            E                        Am
es que no te has dado cuenta de lo mucho que me cuesta ser tu amigo
Cm                   F            G          [G  -  F  -  E]
ya no puedo continuar espiando, día y noche, tu llegar adivinando
Am                      D            Bm7            E
ya no sé con qué inocente excusa pasar por tu casa, oh oh...
Am                  Cm             G          [G  -  F  -  E]
ya me quedan tan pocos caminos y aunque pueda parecerte un desatino
Am                          D         G       C - D
no quisiera, yo morirme sin tener algo contigo.

G                        F#m         B            Em  [Em - Ebm - Dm] - G
Hace falta que te diga que me muero por tener algo contigo
  C                            E                        Am
es que no te has dado cuenta de lo mucho que me cuesta ser tu amigo
Cm                       F             G          [G  -  F  -  E]
ya no puedo acercarme a tu boca, sin deseártela de una manera loca
     Am                        A                  D
necesito, niña, controlar tu vida, saber quién te besa y quién te abriga.
Am                  Cm             G          [G  -  F  -  E]
ya me quedan tan pocos caminos y aunque pueda parecerte un desatino
Am                          D         G
no quisiera, yo morirme sin tener algo contigo.


Final: G - Em - C - A - D











                 ------
              º-|¤    ¤|-º
              º-| LuïS |-º
              º-|¤    ¤|-º
                 \    /
                |  |
      ·===========================·
      | luis_6cuerdas@hotmail.com |
      ·===========================·


*Si hubiese algún error o alguna duda, escribe al mail o avisa por MSN*
Versión 5 - Algo contigo (Letra y acordes)
Esta es una corrección de la tercera de las versiones de esta canción, realizada
por Mariano Mengelatte.  Espero que le sirva a alguien.
Esta repleta de variaciones de acordes y diferentes inversiones de los mismos.


Intro:

e:-------3--------------3-------------3--------------3------|
B:---------3---3----------3---3---------3---3----------3---3|
G:----4------4------3/4-----4-------4-----4------3/4-----4--|
D:----------------------------------------------------------|
A:----------------------------------------------------------|
E:----3-------------3---------------3------------3----------|

SOL
¿HACE FALTA Q TE DIGA
LAm/FA#            SI          MIm   MIm7 RE#m7 REm7  SOL7/6
QUE ME MUERO POR TENER ALGO CONTIGO?
 DOmaj7/9
¿ES QUE NO TE HAS DADO CUENTA
      SIm7         MI7/9            LAm7   LAm6
DE LO MUCHO QUE ME CUESTA SER TU AMIGO?


DOmaj7/9                  DOm7/6/4
YA NO PUEDO ACERCARME A TU BOCA
      SOL6      FA maj7  MI7/9
SIN DESEÁRTELA DE UNA MANERA LOCA,
 LAm7                 LAm6
NECESITO CONTROLAR TU VIDA,
              RE7/9            RE5 
SABER QUIÉN TE BESA Y QUIÉN TE ABRIGA...


¿HACE FALTA QUE TE DIGA
QUE ME MUERO POR TENER ALGO CONTIGO?
¿ES QUE NO TE HAS DADO CUENTA
DE LO MUCHO QUE ME CUESTA SER TU AMIGO?


DOmaj7/9                  DOm7/6/4
YA NO PUEDO CONTINUAR ESPIANDO
            SOL6      FA maj7  MI7/9
DÍA Y NOCHE TU LLEGAR ADIVINANDO
   LAm7                 RE7/9
YA NO Sé CON QUÉ INOCENTE EXCUSA
  REm7*             SOL7/6
PASAR POR TU CASA...  OH
      DOmaj7/9                  DOm7/6/4
YA ME QUEDAN MUY POCOS CAMINOS
       SOL6      FA maj7  MI7/9
Y AUNQUE PUEDA PARECERTE UN DESATINO
   LAm7                    RE7/9            SOL
NO QUISIERA YO MORIRME SIN TENER ALGO CONTIGO.


¿HACE FALTA QUE TE DIGA
QUE ME MUERO POR TENER ALGO CONTIGO?
¿ES QUE NO TE HAS DADO CUENTA
DE LO MUCHO QUE ME CUESTA SER TU AMIGO?

YA NO PUEDO ACERCARME A TU BOCA
SIN DESEÁRTELA DE UNA MANERA LOCA,
NECESITO CONTROLAR TU VIDA,
SABER QUIÉN TE BESA Y QUIÉN TE ABRIGA


YA ME QUEDAN MUY POCOS CAMINOS
Y AUNQUE PUEDA PARECERTE UN DESATINO
NO QUISIERA YO MORIRME SIN TENER ALGO CONTIGO.

Final: SOL LAm/FA#  MIm  MIm/RE  DOmaj7  SIm7  LAm7  RE

Acordes

notas                  Eabdge
Cuerdas            654321

SOL 7/6              3+345+
DOmaj7/9            +3243+
SIm7                  7+777+
LAm7                  5+555+
LAm6                  5+455+
DOm7/6/4            +33345
SOL 6                  3+243+
FA maj7            1+221+
MIm7/9            +7677+
REm7/9            +5455+
RE7/5             +57576
REm7*                  +5356+
Versión 6 - Algo contigo (Tablatura para bajo (bass tab))
No se bien parece bossa
recien aprendo eso
bueno
aca esta una cancion la mas hermosa que escuche
dice mucho
repite y repite
pero dice mucho
a quien mas te lo dedico Andrea
no se si te gusta este estilo de musica
pero no importa dice mucho
atte. miauri
Clave 2:3
Intro
E|--3-------|-3---------|-3-------|-3----------|
A|---5--5/3-|--5--5-5/3-|--5--5/3-|--5--5-5/3--|
D|----5-----|---5-------|---5-----|---5--------|
G|----------|-----------|---------|------------|

Hace falta que te diga
E|--3------|-----|-----|-----|---|----------|
A|---5--5--|--4--|---2-|-----|---|-5-5-5-4--|
D|----5--5-|-4-4-|--4--|-2-2-|-1-|--7-5-----|
G|---------|-----|-4---|--4--|---|----------|

Es que no te
E|---3-----|-----|-----|-----|-------------|----|
A|--3-3--3-|-2-2-|--2--|-0-0-|-------------|----|
D|------5--|--4--|-2-2-|--2--|-------------|-2--|
G|---------|-----|-----|-----|-0h2-4-5-4-2-|----|

Ya no puedo
E|-----------|--------|-----|-----|-----|----|
A|--3-3----3-|-----3--|--5--|-----|--2--|-2--|
D|---5----5--|-3-3--3-|-5-5-|-4-3-|-2-2-|----|
G|------55---|--5-----|-----|-----|-----|----|

Necesito
E|------|----|-----|----|-----|-----|--------------|
A|--0-0-|----|-0-0-|----|-0-0-|-0-2-|-5------------|
D|---2--|-22-|--2--|-22-|--2--|-----|--7------7/4--|
G|------|----|-----|----|-----|-----|---7/9-7/6----|

Hace falta
E|--3------|---2-|-----|-----|---|-------3--|
A|---5--5--|--4--|---2-|-----|---|-5-5--5---|
D|----5--5-|-4---|--4--|-2-2-|-1-|--7-75----|
G|---------|-----|-4---|--4--|---|----------|

Es que no te
E|---3-3--|-----|-----|-----|----|-----|------|
A|--3-3-3-|-2-2-|--2--|-0---|----|-0-0-|-002--|
D|--------|--4--|-2-2-|--2--|-22-|--2--|------|
G|--------|-----|-----|---2-|----|-----|------|

Ya no puedo
E|---------|---------|-----|-----|-----|-----|
A|--3-3-3--|--3--3---|--5--|-----|--2--|-22--|
D|---5---5-|-3-3--34-|-5-5-|-4-3-|-2-2-|-----|
G|---------|---------|-----|-----|-----|-----|

Ya no se
E|------|----|-----|---|-----|----|---0-|-0----|
A|--0-0-|----|-----|-3-|-2-2-|-2--|--2--|--2---|
D|---2--|-02-|-0-0-|---|--4--|--4-|-2---|---2--|
G|------|----|--2--|---|-----|----|-----|------|

Ya me quedan
E|------|-----|-----|-----|-----|-----|---0-|-0---|
A|--0-0-|-0---|-3-3-|-----|--5--|-----|--2--|--2--|
D|---2--|--22-|--5--|-3-3-|-5-5-|-4-3-|-2---|---2-|
G|------|-----|-----|--5--|-----|-----|-----|-----|

No quisiera
E|------|-----|-----|----|------|---------|----|
A|--0-0-|-0-0-|-----|----|------|---------|-0--|
D|---2--|--2--|-0-0-|-0--|-050--|-0---210-|----|
G|------|-----|--2--|--2-|----0-|--012----|----|

Hace falta
E|--3-|-2-|---|-----|---|---------|
A|----|---|-2-|--2--|---|-5-5-54--|
D|----|---|---|-2-2-|-1-|--7-5----|
G|----|---|---|-----|---|---------|

Es que no te
E|----------|-----|-----|-----|----|-----|-----|
A|--3-3-3-3-|-2-2-|--2--|-0---|----|-0---|-----|
D|---5---5--|--4--|-2-2-|--2--|-22-|--2--|-2---|
G|----------|-----|-----|---2-|----|---2-|--2--|

Ya no puedo
E|------|-----|-----|-----|-----|-----|---0-|-0---|
A|--0-0-|-0-0-|-3-3-|--3--|--5--|-----|--2--|--2--|
D|---2--|--2--|--5--|-3-3-|-5-5-|-4-3-|-2---|---2-|
G|------|-----|-----|-----|-----|-----|-----|-----|

Necesito
E|------|-----|-----|---|-----|-----|---0-|-0----|
A|--0-0-|-0-0-|-----|-3-|-2-2-|-2-2-|--2--|--2---|
D|---2--|--2--|-0-0-|---|--4--|--4--|-2---|---2--|
G|------|-----|--2--|---|-----|-----|-----|------|

Ya me quedan
E|------|-----|-----|-----|-----|-----|---0-|-0---|
A|--0-0-|-0-0-|-3-3-|-----|--5--|-----|--2--|--2--|
D|---2--|--2--|--5--|-3-3-|-5-5-|-4-3-|-2---|---2-|
G|------|-----|-----|--5--|-----|-----|-----|-----|

No quisiera
E|------|-----|-----|---|-3-|
A|--0-0-|-0-0-|-----|-0-|---|
D|---2--|--2--|-0-0-|---|---|
G|------|-----|--2--|---|---|

Algo contigo
E|--------|-7-7----|-5----|-3----|-22----|-----|-------|
A|---5----|--7-7-5-|--5-3-|--3-2-|---2-0-|-2-5-|-5-5---|
D|--5-5-4-|--------|------|------|-------|-----|--7-7--|
G|--------|--------|------|------|-------|-----|-------|

Algo contigo
E|-------77-|--7----|-5----|------|-2-----|-----|-------|
A|---5------|-7-7-5-|--5-3-|--3-2-|---2-0-|-2-5-|-5-5---|
D|--5-5-4---|-------|------|-5----|--4----|-----|--7-7--|
G|----------|-------|------|------|-------|-----|-------|

se repite estos dos ultimos
hasta el final
hay cambios, pero a su gusto

El material contenido en esta página es para exclusivo uso privado y con propósito meramente educativo, se prohibe su reproducción y uso con fines comerciales