Amárrame

Tabs, letra y acordes de 'Amárrame' por Mon Laferte

Versiones disponibles: Tablatura para guitarra (TAB) - Letra y acordes - Letra y acordes - Tablatura para bajo (bass tab)

Les comparto mi versión de ¨Amárrame¨ con 3 diferentes formas de tocarla
Como sugerencia:
La ¨GUITARRA 1¨ puede ser tocada en una guitarra acústica o electroacústica
La ¨GUITARRA 2¨ puede ser tocada en una guitarra eléctrica
El ¨Bajeo¨ pueden tocarlo como acompañamiento con cualquier tipo de guitarra
También pueden mezclar las 3 formas con una sola guitarra
o de la forma que mejor se acomoden.


INTRO:

►Guitarra 1:
e |-------------------|
B |-------------------|
G |-------------------|
D |-------------------|
A |-------------------|
E |-0-1-4-0-1-4-0-1-4-|

MON LAFERTE:
Ay, quiéreme de a poco,
Pero que no me de cuenta y que nadie sepa.
Ven y cuídame,
Pero que parezca que me estás haciendo daño.
       Fm (intro)
Amárrame.

►Guitarra 2:
     Fm (intro)
D |---10-10---10-10-|
A |-8-------8-------|

o tambien en GUITARRA 2:
    Fm (intro)
G |---5-5---5-5-|
D |-3-----3-----|

JUANES:
►GUITARRA 1: Fm (traste 1) Cm (traste 3)
►GUITARRA 2: Fm (traste 8) Cm (traste 8)

o tambien en GUITARRA 2:
    Fm   Cm
e |-13--|-11--|
B |-13--|-13--|
G |-13--|-12--|


►Bajeo 1:
     Fm     Cm
G |---5-3-|-----1-|
D |-3-----|-3-1---|


Fm Cm             Fm     Cm
Ay, finge que no te gusto
            Fm           Cm          Fm  Cm
Dame una mirada y luego vuélvete lejana.
          Fm Cm         Fm    Cm
Y sin querer búscame y déjame,
            Fm               Cm        Fm    Cm
Llámame, pero no me hables, bésame y ahógame.
       Fm Cm
Amárrame.

CORO:
►GUITARRA 1: Fm (traste 1) G# (traste 4) D# (traste 6) Fm (traste 1)
►GUITARRA 2: Fm (traste 8) G# (traste 4) D# (traste 6) Fm (traste 1)

►Bajeo 2 (coro):
         Fm            G#             D#
B |-------------|-----4-----4-4-|-----4-----|
G |-----5-----5-|---5-----5-----|---5-----5-|
D |---3-----3---|-3-----3-------|-5-----5---|
A |-3-----3-----|---------------|-----------|


 Fm  G#     D#                            Fm
Cúrame y enfermame de a poco, poco a poco
 Fm  G#        D#                             Fm
Cúrame y transfórmame en un loco, poco a poco.
       Fm
Amárrame.

(parte final del bajeo en el coro a partir de D# en ¨transformame¨)
        D#         Fm
B |-----4-----|---------|
G |---5-----5-|-----5---|
D |-5-----5---|---3-----|
A |-----------|-3-----3-|

PUENTE:

►GUITARRA 1: Fm (traste 1)
►Guitarra 2:
         Fm (traste 8)
e |---8--------|---8--------|---8----------|
B |-----9----9-|-----9----9-|-----9----9---|
G |-------10---|-------10---|-------10-----|
D |------------|------------|--------------|
A |-8----------|-8----------|-8----------8-|

►Bajeo 3 (puente):
G |---1-----|---1-----|---1-------|
D |-3---5-1-|-3---5-1-|-3---5-1-3-|

SEGUNDA PARTE, JUANES:

►GUITARRA 1: Fm (traste 1) Cm (traste 3)
►GUITARRA 2: Fm (traste 8) Cm (traste 8)
►Bajeo 1

Fm Cm              Fm      Cm
Ay, quiero ver tu perverso,
              Fm           Cm              Fm   Cm
Hasta dónde llegas, hasta donde me has llevado.
      Fm Cm             Fm      Cm
Ignórame, ven y pierde la razón,
               Fm           Cm         Fm   Cm
Quiero que me ruegues y me mires a los ojos.

MON LAFERTE:

Riff GUITARRA 2:                  ESTA ES OTRA FORMA DE TOCARLO
G |-10-12-13-12-10-8----8-|-10-|    B |-6-8-9-8-6-4---4-|-6-|
D |------------------10---|----|    G |-------------5---|---|

           Fm   Cm       Fm  Cm
Dame la espalda, desenfócame
            Fm       Cm        Fm     Cm
Tómame del pelo y repíteme mi nombre.
      Fm Cm           Fm  Cm
Y ámame, pero sin querer...
              Fm          Cm         Fm   Cm
Deja que te lleve, que mañana acaba todo.
       Fm
Amárrame.


CORO:
►GUITARRA 1: Fm (traste 1) G# (traste 4) D# (traste 6) Fm (traste 1)
►GUITARRA 2: Fm (traste 8) G# (traste 4) D# (traste 6) Fm (traste 1)
►Bajeo 2

 Fm  G#     D#                            Fm
Cúrame y enfermame de a poco, poco a poco
 Fm  G#        D#                             Fm
Cúrame y transfórmame en un loco, poco a poco.
       Fm
Amárrame.

►Bajeo 3
►GUITARRA 2:
e |-----------4-|-------4-|-----------4---|
B |-6-6-6-6-4---|-6-6-4---|-6-6-6-6-4---6-|

SOLO MUSICAL: Fm G# D# Fm
►Bajeo 2
►GUITARRA 1: Fm (traste 1) G# (traste 4) D# (traste 6) Fm (traste 1)
►GUITARRA 2: Fm (traste 8) G# (traste 4) D# (traste 6) Fm (traste 1)
*OPCIONAL*
e |----------------11-|----------------11-|-13-11----------------------------|
B |----11-13-11-------|----11-13-11-------|-------11-9h11-9h11-9h11-13-------|
G |-13----------13----|-13----------13----|----------------------------10-13-|


SOLO
►GUITARRA 2:
         Fm            G#             D#               Fm
e|----3-4-4-4-4-4-3-----3-4-4-4-4-4-3----3-4-6-6-6-6-6-4-3-6-4-3-4-3h4-3-|
B|---6-------------6---6-------------6--6-------------------------------6|
G|-5-----------------5---------------------------------------------------|

e|-------------|
B|---4h6-6h4---|
G|-5---------5-|

CORO:
►GUITARRA 1: Fm (traste 1) G# (traste 4) D# (traste 6) Fm (traste 1)
►GUITARRA 2: Fm (traste 8) G# (traste 4) D# (traste 6) Fm (traste 1)
►Bajeo 2

 Fm  G#     D#                            Fm
Cúrame y enfermame de a poco, poco a poco
 Fm  G#        D#                             Fm
Cúrame y transfórmame en un loco, poco a poco.
       Fm
Amárrame.

►Bajeo final:
G |-------1-|-------1-|-------1---|
D |-3-3-1---|-3-3-1---|-3-3-1---3-|

►GUITARRA 2:
e |-------4-|-------4-|-------4---|
B |-6-6-4---|-6-6-4---|-6-6-4---6-|
Versión 2 - Amárrame (Letra y acordes)
Aquí los acordes de la canción de Mon Laferte a dueto con Juanes.
NOTA: Los acordes los pondré sin capo.
      Es opcional el capo en el primer traste para quienes gusten
      tocar la rola sin cejillas, yo pondré los acordes naturales.
      ¡Saludos!

El intro y las primeras 4 líneas de la rola se basan en pequeños bajeos,
los mismos que se utilizan en el intro.

INTRO:
e |-------------------|
b |-------------------|
g |-------------------|
D |-------------------|
A |-------------------|
E |-0-1-4-0-1-4-0-1-4-|

MON LAFERTE:
Ay, quiéreme de a poco,
Pero que no me de cuenta y que nadie sepa.
Ven y cuídame,
Pero que parezca que me estás haciendo daño.
       Fm
Amárrame.

JUANES:

Fm Cm             Fm     Cm
Ay, finge que no te gusto

            Fm           Cm          Fm  Cm
Dame una mirada y luego vuélvete lejana.

          Fm Cm         Fm    Cm
Y sin querer búscame y déjame,

            Fm               Cm        Fm    Cm
Llámame, pero no me hables, bésame y ahógame.

       Fm Cm
Amárrame.

CORO:

 Fm  G#     D#                            Fm
Cúrame y enfermame de a poco, poco a poco

 Fm  G#        D#                             Fm
Cúrame y transfórmame en un loco, poco a poco.

       Fm
Amárrame.

SEGUNDA PARTE, JUANES:

Fm Cm              Fm      Cm
Ay, quiero ver tu perverso,

              Fm           Cm              Fm   Cm
Hasta dónde llegas, hasta donde me has llevado.

      Fm Cm             Fm      Cm
Ignórame, ven y pierde la razón,

               Fm           Cm         Fm   Cm
Quiero que me ruegues y me mires a los ojos.

MON LAFERTE:

           Fm   Cm       Fm  Cm
Dame la espalda, desenfócame

            Fm       Cm        Fm     Cm
Tómame del pelo y repíteme mi nombre.

      Fm Cm           Fm  Cm
Y ámame, pero sin querer...

              Fm          Cm         Fm   Cm
Deja que te lleve, que mañana acaba todo.

       Fm
Amárrame.

CORO:

 Fm  G#     D#                            Fm
Cúrame y enfermame de a poco, poco a poco

 Fm  G#        D#                             Fm
Cúrame y transfórmame en un loco, poco a poco.

       Fm
Amárrame.

SOLO MUSICAL: Fm G# D# Fm
SOLO DE GUITARRA:

         Fm               G#                D#                         Fm
e|---3-4-4-4-4-4-3-----3-4-4-4-4-4-3----3-4-6-6-6-6-6-4-3-6-4-3-4-3h4-3-|
b|--6-------------6---6-------------6--6-------------------------------6|
g|-5-----------------5--------------------------------------------------|
D|----------------------------------------------------------------------|
A|----------------------------------------------------------------------|
E|----------------------------------------------------------------------|

CORO:

 Fm  G#     D#                            Fm
Cúrame y enfermame de a poco, poco a poco

 Fm  G#        D#                             Fm
Cúrame y transfórmame en un loco, poco a poco.

       Fm
Amárrame.
Versión 3 - Amárrame (Letra y acordes)
Intro
Bajeo:
e|------------------------
B|------------------------
G|------------------------      X4
D|------------------------
A|------------------------
E|-0--1--4----------------

(bajeo)
Ay, quiéreme de apoco
Pero que no me dé cuenta y que nadie sepa
Ven y cuídame
Pero que parezca que me estás haciendo daño

Amárrame
Fm

Fm   D#          Fm      D#
Ay, finge que no te gusto
              Fm               D#     Fm
Dame una mirada y luego vuélvete lejana
            D#              Fm
Y sin querer, búscame y déjame
D#          Fm              D#      Fm
Llámame pero no me hables, bésame y ahógame

Amárrame

Fm   Ab      D#                          Fm
Cúrame, y enférmame de poco a poco a poco
Fm   Ab     D#                               Fm
Cúrame, y transfórmame en un loco poco a poco
Amárrame

Ay, quiero ver tu perversión
Hasta donde llegas, hasta dónde me has llevado
Ignórame, ven y pierde la razón
quiero que me ruegues y me mires a los ojos

Dame la espalda, desenfócame
Tómame del pelo y repíteme mi nombre
y ámame pero sin querer
Deja que te lleve que mañana acaba todo
Amarrame

Cúrame, y enférmame de poco a poco a poco
Cúrame, y transfórmame en un loco poco a poco
Amárrame

Cúrame, y enférmame de poco a poco a poco
Cúrame, y transfórmame en un loco poco a poco
Amárrame

Solo: Fm   Bb   D#   Fm

Cúrame, y enférmame de poco a poco a poco
Cúrame, y transfórmame en un loco poco a poco
Amárrame
Fin:  Fm
Versión 4 - Amárrame (Tablatura para bajo (bass tab))
Todo Va en ritmo de Cumbia, La original lleva bajo de 5 cuerdas
aquí ya esta todo convertido y listo para tocar.

Inicia la guitarra pero si quieren hacer el intro ustedes así es:

Intro:

G|-----------
D|--------6--
A|--7--8-----
E|-----------


Verso:

Ay! Finge

G|-------------------------------
D|-----------10------------------
A|-----8---------11--------6-----
E|----------------------8-----8--

Coro:

Júrame...
(Pongo las notas por si quieren jugar con las triadas)

   F                        G#
G|-----------------------------------------------
D|-----------------------------------------------
A|--------3--------3-----------3--6-----3--6-----
E|--1--------4--1-----1-----4--------4-----------


    D#                  F
G|-----------------------------------------------
D|-----------------------------------------------
A|--6--6-----6--6-----------3--------3-----------
E|-------6--------6-----1-----4--1-----1---------


Puente:

Amárrame

G|--------------------------------
D|--------------------------------
A|--8-----6--8-----6--8-----6--8--
E|-----8--------8--------8--------


Aqui Vuelve a entrar Juanes sin Bajo, entramos cuando dice "Ignorame"


Y se repite todo, En la parte del "Solo" Va de nuevo el verso.

El material contenido en esta página es para exclusivo uso privado y con propósito meramente educativo, se prohibe su reproducción y uso con fines comerciales