El milagro

Tabs, letra y acordes de 'El milagro' por Marcos Vidal

Versiones disponibles: Tablatura para guitarra (TAB) - Tablatura para guitarra (TAB) - Tablatura para guitarra (TAB) - Letra y acordes - Letra y acordes

Ahora envio esta corrección porque la parte de la tablatura, a
pesar de que sonaba bien la sentia muy simple, asi que le puse un
poco de acompañamiento, por otro lado, la segunda parte de la tab,
la trabaje sobre los mismos trastes para tocarla mas fácil pero en
escencia es lo mismo... Pronto enviaré otra corrección para tocar
la segunda parte de la tab también a dos notas.. xD

Espero que les guste

Intro
e--------------0--0--0--1--------3--1--0--1--0--0--0--1---------|
B-----0--1--3--1--1--1--3--3-----5--4--1--3--1--1--1--3--3------|
G--2--0--2--4--------------4-----------------------------4------|
D--2------------------------------------------------------------|
A---------------------------------------------------------------|
E---------------------------------------------------------------|

e--10-7-8----7----------------------------------7--3------------|
B---------10---8-10----8---------------------10----0------------|
G-------------------10---9-7-----------------------0------------|
D----------------------------9-10-7-9----7----------------------|
A-------------------------------------10---8--------------------|
E--------------------------------------------------3------------|

I Estrofa
Am                 Em                 F
Aún no puedo asimilar lo que me ha sucedido,
Am                 Em                F             A
el milagro más glorioso que yo he vivido,
Dm                 G                  Am      E
que después de malgastar lo que no era mío
F                   E
no he tenido que pagar ;
Am                    Em             F
traicioné a aquel que me perdonó la vida,
Am                Em            F        A
humillé al que curó toda mi herida,
Dm                  G             Am      A
y en mi huida coseché lo que merecía,
         Dm            G
y desvanecido en mi dolor
           Am                 E7
en algún momento Él me encontró,

Coro
         A               E            D
Y he despertado en el redil, no sé como,
         A             E           D
entre algodones y cuidados del Pastor,
        F#m           C#m          Bm    D
y antes de poder hablar de mi pasado,
       Bm             D          E
me atraviesan Sus palabras y Su voz
A                    E               D
Que se alegra tanto de que haya vuelto a casa,
A                   E                  D
que no piense, que descanse, que no pasa nada,
    F#m           C#m             Bm       D
y dormido en su regazo, lo he sabido,
      Bm           E           A
tengo Vida, tengo Dueño y soy querido.

e--------------0--0--0--1--------3--1--0--1--0--0--0--1---------|
B-----0--1--3--1--1--1--3--3-----5--4--1--3--1--1--1--3--3------|
G--2--0--2--4--------------4-----------------------------4------|
D--2------------------------------------------------------------|
A---------------------------------------------------------------|
E---------------------------------------------------------------|

e--10-7-8----7----------------------------------7--3------------|
B---------10---8-10----8---------------------10----0------------|
G-------------------10---9-7-----------------------0------------|
D----------------------------9-10-7-9----7----------------------|
A-------------------------------------10---8--------------------|
E--------------------------------------------------3------------|

II Estrofa
(Igual que la primera estrofa)
He aprendido la lección del amor divino,
que me transformó, cruzándose en mi camino,
y que dio a mi vida entera otro sentido,
otra meta y otro fin ;
yo no sé lo que traerá para mi el mañana,
pero sé que nunca se apagará su llama,
salga el sol por donde quiera, Él me ama,
sé lo que es la gracia y el perdón,
su misericordia es mi canción... (Coro)

Último Coro sube 1/2 tono,
A=A#, E=F, D=D#, F#m=Gm, C#m=Dm, Bm=Cm

e--------------1--1--1--2--------4--2--1--2--1--1--1--2---------|
B-----1--2--4--2--2--2--4--4-----6--4--2--4--2--2--2--4--4------|
G--3--1--3--5--------------5-----------------------------5------|
D--3------------------------------------------------------------|
A---------------------------------------------------------------|
E---------------------------------------------------------------|

e--8--9--6--8--10-----------------------------------------------|
B---------------------------------------------------------------|
G--8--9--6--8--12-----------------------------------------------|
D---------------------------------------------------------------|
A---------------------------------------------------------------|
E---------------------------------------------------------------|

Que Dios los bendiga a todos.. Att Danfly, cualquier duda escriban
al correo
Versión 2 - El milagro (Tablatura para guitarra (TAB))
Hola a todos, esta es mi primera transcripción y esta canción me
toca mucho pues verdaderamente Dios realizo un verdadero milagro
en mi vida y me cambio totalmente suena mejor con dos guitarras
ya hice la prueba escuchando la canción se puede acomodar
si se parece a cualquier otra jejeje perdón no pos me toco
sacarla de oído si pueden modificarla bienvenido sea…

(si no tienen un cello se puede improvisar con Am, F acomodandose
un poco al tono)
Esta parte va más o menos después que termina el intro del cello.

RIFF 1
E|-------------------------------------------------------
B|--------3-3s5-5-5-6------8-6-5---5-5-5-6---------------
G|--2-4-5-------------5s7--------7---------5s7------5p4h5
D|-------------------------------------------------------
A|-------------------------------------------------------
E|-------------------------------------------------------

Esta se la toca en modo arpegio suavemente siguiendo el ritmo de la
tonada..

Am              Em                   F
Aún no puedo asimilar lo que me ha sucedido,
Am              Em                  F     A7sus4 - A7
el milagro más glorioso que yo he vivido,
Dm              G5/D                    Am
que después de malgastar lo que no era mío
F                     E
no he tenido que pagar ;

Am                   Em           F
traicioné a aquel que me perdonó la vida,
Am              Em              F     A7sus4 - A7
humillé al que curó toda mi herida,
Dm              G5/D            Am
y en mi huida coseché lo que merecía,

Aqui comienza con la segunda guitarra

RIFF 2
E|---------------------------------------------
B|--------3-3s5-5-5-6------8-6-5---5-5-5-6-----
G|--2-4-5-------------5s7--------7---------5s7-
D|---------------------------------------------
A|---------------------------------------------
E|---------------------------------------------

            F           G
y desvanecido en mi dolor
             F                G
en algún momento Él me encontró,


Esta parte si lleva un rasgueo leve...

A                     E            D
Y he despertado en el redil, no sé como,
A                 E            D
entre algodones y cuidados del Pastor,
Bm                         E
y antes de poder hablar de mi pasado,
F                            E
me atraviesan Sus palabras y Su voz :

A                    E                  D
Que se alegra tanto de que haya vuelto a casa,
A                   E                  D
que no piense, que descanse, que no pasa nada,
Bm                       E
y dormido en su regazo, lo he sabido,
E                  D           A
tengo Vida, tengo Dueño y soy querido.

RIFF 3
E|---------------------------------------------------------------
B|--------3-3s5-5-5-6------8-6-5-6-5-5-5-6-----------------8h10-8
G|--2-4-5-------------5s7------------------5s7-5p4h5-7h9-7-------
D|---------------------------------------------------------------
A|---------------------------------------------------------------
E|---------------------------------------------------------------

Se toca igual que al principio con un arpegio suave

Am              Em                   F
He aprendido la lección del amor divino,
Am              Em              F          A7sus4 - A7
que me transformó, cruzándose en mi camino,
Dm             G5/D              Am
y que dio a mi vida entera otro sentido,
F                 E
otra meta y otro fin ;

Am                Em                F
yo no sé lo que traerá para mi el mañana,
Am              Em                F     A7sus4 - A7
pero sé que nunca se apagará su llama,
Dm             G5/D            Am
salga el sol por donde quiera, Él me ama,

RIFF 4
E|--------------------------------------------------
B|--------3-3s5-5-5-6------8-6-5-6-5-5-5-6----------
G|--2-4-5-------------5s7------------------5s7-5h3s5
D|--------------------------------------------------
A|--------------------------------------------------
E|--------------------------------------------------

F                                 G
sé lo que es la gracia y el perdón,
F                             G
su misericordia es mi canción


Aqui lleva de nuevo un rasgueo leve...

A                     E             D
Y he despertado en el redil, no sé como,
A                   E           D
entre algodones y cuidados del Pastor,
Bm                             E
y antes de poder hablar de mi pasado,
F                               E
me atraviesan Sus palabras y Su voz :

A                      E                 D
Que se alegra tanto de que haya vuelto a casa,
A                   E                    D
que no piense, que descanse, que no pasa nada,
Bm                       E
y dormido en su regazo, lo he sabido,
E                  D           A
tengo Vida, tengo Dueño y soy querido.


ACORDES RAROS

G5/D  A7sus4

E-3   E-x
B-3   B-3
G-0   G-x
D-x   D-2
A-x
E-x


Saludos a todos Sociedad de Jovenes Servidores de Cristo
Ministerio de Iglesias Cristianas Evangélicas
"Filadelfia del Dios Viviente"
Ecuador

KyRiOs
Versión 3 - El milagro (Tablatura para guitarra (TAB))
Aca les envio la correccion e este hermoso tema q ah sido
de bendicion para mi vida...

Intro
e---------------------------3------------------------------------|
B----0-1-3-3´5--5-5-6--1´3----6-5-3-3´5--5-5-6--1´3--1-0-1--3´5-3
G--2-------------------------------------------------------|
D--------------------------------------------------------------|
A---------------------------------------------------------------|
E---------------------------------------------------------------|

(´)= arrastrar

I Estrofa
Am                 G*                 F*
Aún no puedo asimilar lo que me ha sucedido,
Am                  G*               F*           A*
el milagro más glorioso que yo he vivido,
Dm                                   Am
que después de malgastar lo que no era mío
F                   E
no he tenido que pagar ;
Am                    G*             F*
traicioné a aquel que me perdonó la vida,
Am                G*            F*        A
humillé al que curó toda mi herida,
Dm                               Am
y en mi huida coseché lo que merecía,
         Am            G*
y desvanecido en mi dolor
           Am                 E
en algún momento Él me encontró,

Coro
         A               E            F#m
Y he despertado en el redil, no sé como,
         A             E           F#m
entre algodones y cuidados del Pastor,
        D          Dm        Am
y antes de poder hablar de mi pasado,
       G                       E        E7
me atraviesan Sus palabras y Su voz
A                    E               F#m
Que se alegra tanto de que haya vuelto a casa,
A                   E                   F#m
que no piense, que descanse, que no pasa nada,
    D         Dm             Am
y dormido en su regazo, lo he sabido,
     F                G       (arranca el punteo o E7 para volver al coro)
tengo Vida, tengo Dueño y soy querido.

e---------------------------3--------------------------------------3´5-3-|
B----0-1-3-3´5--5-5-6--1´3----6-5-3-3´5--5-5-6--1´3--1-0-1--3´5-3--------|
G--2-------------------------------------------------------|
D--------------------------------------------------------------|
A---------------------------------------------------------------|
E---------------------------------------------------------------|

II Estrofa
(Igual que la primera estrofa)
He aprendido la lección del amor divino,
que me transformó, cruzándose en mi camino,
y que dio a mi vida entera otro sentido,
otra meta y otro fin ;
yo no sé lo que traerá para mi el mañana,
pero sé que nunca se apagará su llama,
salga el sol por donde quiera, Él me ama,
sé lo que es la gracia y el perdón,
su misericordia es mi canción... (Coro)
e---------------------------3--------------------------------------3´5-3-|
B----0-1-3-3´5--5-5-6--1´3----6-5-3-3´5--5-5-6--1´3--1-0-1--3´5-3--------|
G--2-------------------------------------------------------|
D--------------------------------------------------------------|
A---------------------------------------------------------------|
E---------------------------------------------------------------|

G*=                  F*=
e---0-----             E---0---|
B---0-----             B---1---|
G---0-----             G---2---|
D---0-----             D---3---|
A---2----              A---3---|
E---3-----             E-------|

Le quiero dedicar esta cancion a mi uña y carne, a la mujer de mi vida
A quien el Señor puso en mi camino para hacerme mas feliz cada dia.
TE AMOO PRI.
Versión 4 - El milagro (Letra y acordes)
Esta es una preciosa canción,
aquí le van las notas originales
ya que hay varias pero tienen varios errores
cualquier duda sobre los acordes los voy a escribir abajo


      Am7         Em7                  Fmaj7
Aun no puedo asimilar lo que me ha sucedido
     Am7          Em7                F   G/A  A/C#
El milagro más glorioso que yo he vivido
      Dm7            Em7                Am7 E/G# C/G
Que después de malgastar lo que no era mío
         Dm7  C/5+/B   E
No he tenido   que     pagar

(Igual)
Traicione a aquel que me perdonó la vida
Humille al que sano toda mi herida
Y en mi huida coseche lo que merecía

        Fmaj7           G
Y desvanecido en mi dolor
            Fmaj7              G
En algún momento el me encontró

Coro:

           A            E/G#        D/F#  E/G#
Y he despertado en el redil, no se como
           A         E/G#        D/F# (Bajo F# E) (Acordes D C#)
Entre algodones y cuidados del pastor
        F#m7      F            A/E     A/5-
Y antes de poder hablar de mí pasado
       Bm7   C#m7   D     Ebº    Esus4  E
Me atraviesan sus palabras y su voz

(Igual)

Que se alegra tanto de que haya vuelto a casa
Que no piense, que descanse que no pasa nada
Y dormido en su regazo yo he sabido…

      Bm7   C#m7      D/E      E          A
Tengo vida   tengo     dueño y soy querido

Aqui estan los acordes por orden de aparicion,
y cualquier duda o comentario mi mail es adanniguitarr@hotmail.com



              Am7
       1   2    3    4    5
E-| |----|----|-◙--|----|----|
B-| |-◙--|----|----|----|----|
G-|0|----|----|----|----|----|
D-| |----|-◙--|----|----|----|
A-|0|----|----|----|----|----|
E-| |----|----|----|----|----|

              Em7
       1   2    3    4    5
E-| |----|----|----|----|----|
B-| |----|----|-◙--|----|----|
G-| |----|----|----|----|----|
D-| |----|-◙--|----|----|----|
A-| |----|-◙--|----|----|----|
E-| |----|----|----|----|----|

              Fmaj7
       1   2    3    4    5
E-|0|----|----|----|----|----|
B-| |-◙--|----|----|----|----|
G-| |----|-◙--|----|----|----|
D-| |----|----|-◙--|----|----|
A-| |----|----|-◙--|----|----|
E-| |----|----|----|----|----|

              G/A
       1   2    3    4    5
E-| |----|----|-◙--|----|----|
B-| |----|----|-◙--|----|----|
G-| |----|----|----|----|----|
D-|0|----|----|----|----|----|
A-|0|----|----|----|----|----|
E-|x|----|----|----|----|----|

              A/C#
       1   2    3    4    5
E-| |----|----|----|----|----|
B-| |----|-◙--|----|----|----|
G-| |----|-◙--|----|----|----|
D-| |----|-◙--|----|----|----|
A-| |----|----|----|--◙-|----|
E-| |----|----|----|----|----|

              Dm7
       1   2    3    4    5
E-| |-◙--|----|----|----|----|
B-| |-◙--|----|----|----|----|
G-| |----|-◙--|----|----|----|
D-|0|----|----|----|----|----|
A-| |----|----|----|----|----|
E-| |----|----|----|----|----|

              E/G#
       1   2    3    4    5
E-| |----|----|----|----|----|
B-| |----|----|----|----|----|
G-| |-◙--|----|----|----|----|
D-| |----|-◙--|----|----|----|
A-| |----|-◙--|----|----|----|
E-| |----|----|----|-◙--|----|

              C/G
       1   2    3    4    5
E-| |----|----|----|----|----|
B-| |-◙--|----|----|----|----|
G-| |----|----|----|----|----|
D-| |----|-◙--|----|----|----|
A-| |----|----|-◙--|----|----|
E-| |----|----|-◙--|----|----|

              C/5+/B
       1   2    3    4    5
E-| |----|----|-◙--|----|----|
B-| |-◙--|----|----|----|----|
G-| |-◙--|----|----|----|----|
D-| |----|----|----|----|----|
A-| |----|-◙--|----|----|----|
E-| |----|----|----|----|----|
(Nota: en el piano se pisan las siguientes notas: B G# C D E G)

                E
       1   2    3    4    5
E-| |----|----|----|----|----|
B-| |----|----|----|----|----|
G-| |-◙--|----|----|----|----|
D-| |----|-◙--|----|----|----|
A-| |----|-◙--|----|----|----|
E-| |----|----|----|----|----|

              D/F#
       1   2    3    4    5
E-| |----|-◙--|----|----|----|
B-| |----|----|-◙--|----|----|
G-| |----|-◙--|----|----|----|
D-| |----|----|----|----|----|
A-| |----|----|----|----|----|
E-| |----|-◙--|----|----|----|

              D
       1   2    3    4    5
E-| |----|-◙--|----|----|----|
B-| |----|----|-◙--|----|----|
G-| |----|-◙--|----|----|----|
D-| |----|----|----|----|----|
A-| |----|----|----|----|----|
E-| |----|----|----|----|----|

               C#
       1   2    3    4    5
E-| |-◙--|----|----|----|----|
B-| |-◙--|-◙--|----|----|----|
G-| |-◙--|----|----|----|----|
D-| |-◙--|----|-◙--|----|----|
A-| |----|----|----|-◙--|----|
E-| |----|----|----|----|----|

              F#m7
       1   2    3    4    5
E-| |----|----|----|----|----|
B-| |----|-◙--|----|----|----|
G-| |----|-◙--|----|----|----|
D-| |----|-◙--|----|----|----|
A-| |----|----|----|----|----|
E-| |----|-◙--|----|----|----|

              F 
       1   2    3    4    5
E-| |-◙--|----|----|----|----|
B-| |----|-◙--|----|----|----|
G-| |----|-◙--|----|----|----|
D-| |----|----|-◙--|----|----|
A-| |----|----|----|----|----|
E-| |----|----|----|----|----|

              A/E
       1   2    3    4    5
E-| |----|----|----|----|----|
B-| |----|-◙--|----|----|----|
G-| |----|-◙--|----|----|----|
D-| |----|-◙--|----|----|----|
A-| |----|----|----|----|----|
E-| |----|----|----|----|----|

              A/5-
       1   2    3    4    5
E-| |----|----|----|----|----|
B-| |----|-◙--|----|----|----|
G-| |----|-◙--|----|----|----|
D-| |-◙--|----|----|----|----|
A-| |----|----|----|----|----|
E-| |----|----|----|----|----|

              Bm7
       1   2    3    4    5
E-| |----|-◙--|----|----|----|
B-| |----|-◙--|-◙--|----|----|
G-| |----|-◙--|----|----|----|
D-| |----|-◙--|----|-◙--|----|
A-| |----|-◙--|----|----|----|
E-| |----|----|----|----|----|

               D/E
       1   2    3    4    5
E-| |----|-◙--|----|----|----|
B-| |----|----|-◙--|----|----|
G-| |----|-◙--|----|----|----|
D-| |----|-◙--|----|----|----|
A-| |----|----|----|----|----|
E-| |----|----|----|----|----|

              C#m7
       1   2    3    4    5
E-| |----|----|----|----|----|
B-| |----|----|----|----|----|
G-| |-◙--|----|----|----|----|
D-| |----|-◙--|----|----|----|
A-| |----|----|----|-◙--|----|
E-| |----|----|----|----|----|

              Ebº
       1   2    3    4    5
E-| |----|-◙--|----|----|----|
B-| |-◙--|----|----|----|----|
G-| |----|-◙--|----|----|----|
D-| |-◙--|----|----|----|----|
A-| |----|----|----|----|----|
E-| |----|----|----|----|----|

              Esus4
       1   2    3    4    5
E-| |----|----|----|----|----|
B-| |----|----|----|----|----|
G-| |----|-◙--|----|----|----|
D-| |----|-◙--|----|----|----|
A-| |----|-◙--|----|----|----|
E-| |----|----|----|----|----|
Versión 5 - El milagro (Letra y acordes)
Un milagro es tenerlo junto de nosotros, amarlo y 
siempre seguirle
Él es lo mejor de mi vida..
ojalá y les guste!


Am              Em                   F
Aún no puedo asimilar lo que me ha sucedido,
Am            Em            F
el milagro más glorioso que yo he vivido, 
Dm                         Am
que después de malgastar lo que no era mío 
F                   E
no he tenido que pagar ; 

Am                  Em        F      
traicioné a aquel que me perdonó la vida, 
Am             Em      F      
humillé al que curó toda mi herida, 
Dm                         Am      
y en mi huida coseché lo que merecía, 
F                  G      
y desvanecido en mi dolor 
F                        G
en algún momento Él me encontró, 

A                  E               D
Y he despertado en el redil, no sé como, 
A               E            D
entre algodones y cuidados del Pastor, 
Bm                         E
y antes de poder hablar de mi pasado, 
F                            E
me atraviesan Sus palabras y Su voz : 

A                    E               D
Que se alegra tanto de que haya vuelto a casa, 
A                   E                  D
que no piense, que descanse, que no pasa nada, 
Bm                       E
y dormido en su regazo, lo he sabido, 
E                  D           A          
tengo Vida, tengo Dueño y soy querido. 

(se repiten las notas)

He aprendido la lección del amor divino, 

que me transformó, cruzándose en mi camino, 

y que dio a mi vida entera otro sentido, 

otra meta y otro fin ; 

yo no sé lo que traerá para mi el mañana, 

pero sé que nunca se apagará su llama, 

salga el sol por donde quiera, Él me ama, 

sé lo que es la gracia y el perdón, 

su misericordia es mi canción ... 


Nota. seme hace que hay una variación en el Bm espero 
la noten si tienen algun comentario escriban al e-mail.

El material contenido en esta página es para exclusivo uso privado y con propósito meramente educativo, se prohibe su reproducción y uso con fines comerciales