La media vuelta

Tabs, letra y acordes de 'La media vuelta' por Luis Miguel

Versiones disponibles: Tablatura para guitarra (TAB) - Tablatura para guitarra (TAB) - Letra y acordes - Letra y acordes

Acá les dejo los acordes y el punteo para guitarra de esta canción


Introducción - guitarra


E|--------------------------------------------------------------|
B|--1 /7-7-7--7-7-7-7-5-3-5/7-7------1 /12-12-12--12-12-12-12---|
G|--2 /7-7-7--7-7-7-7-6-4-6/7-7------2 /12-12-12--12-12-12-12---|
D|--------------------------------------------------------------|
A|--------------------------------------------------------------|
e|--------------------------------------------------------------|

E|------------------9--9---9--9--9--9--11̑9-9--7-5--------------|
B|-10-8/12-12----10-10-10--10-10-10-10------10-8-7--10-10-10-12-|
G|-11-9/12-12----11---------------------------------11-11-11-12-|
D|--------------------------------------------------------------|
A|--------------------------------------------------------------|
e|--------------------------------------------------------------|

E|--------------------------------------------------------------|
B|-10-10-8--8-8-8-12-10-8-7-------------------------------------|
G|-11-11-9--9-9-9-12-11-9-7-------------------------------------|
D|-------9----------------7-------------------------------------|
A|--------------------------------------------------------------|
e|--------------------------------------------------------------|


x1

E|--------------------------------------------------------------|
B|--1 /7-7-7--7-7-7-7-5-3-5/7-7------1 /12-12-12--12-12-12-12---|
G|--2 /7-7-7--7-7-7-7-6-4-6/7-7------2 /12-12-12--12-12-12-12---|
D|--------------------------------------------------------------|
A|--------------------------------------------------------------|
e|--------------------------------------------------------------|

E|------------------9--9---9--9--9--9--11̑9-9--7-5--------------|
B|-10-8/12-12----10-10-10--10-10-10-10------10-8-7--10-10-10-12-|
G|-11-9/12-12----11-10-10---------------------------11-11-11-12-|
D|--------------------------------------------------------------|
A|--------------------------------------------------------------|
e|--------------------------------------------------------------|

E|--------------------------------------------------------------|
B|-10-10-8--8-8-8-12-10-8-7---10-12--10-12-10-12--10-12-10-10-8-|
G|-11-11-9--9-9-9-12-11-9-7---11-12--11-12-11-12--11-12-11-11-9-|
D|-------9----------------7----------------------------------10-|
A|--------------------------------------------------------------|
e|--------------------------------------------------------------|



E|--------------------------------------------------------------|
B|-8-8-8-12-10-8-7----------------------------------------------|
G|-9-9-9-12-11-9-7----------------------------------------------|
D|---------------7----------------------------------------------|
A|--------------------------------------------------------------|
e|--------------------------------------------------------------|



Introducción - trompeta en guitarra

E|-----2-2-2-2-3-2-3-2-----------2---2--------------------------|
B|--3--3-3-3-3-5-3-5-3-5-3---3-3-3-5-3-5-3----------5-3-5-------|
G|--4------------------5-4---4-4---5---5-4----5-5-5-5-4-5-5-4---|
D|--------------------------------------------7-7-7-------7-5---|
A|--------------------------------------------------------------|
e|--------------------------------------------------------------|

Introducción guitarra
E|--------------------------------------------------------------|
B|--357-7(*)-7/8-7-7̑5-5-5--------5-----------------------------|
G|--467--------------------7--5-5---7-5-4---2(*)-5-4-2--2-5-4---|
D|--------------------------------------------------------------|
A|--------------------------------------------------------------|
e|--------------------------------------------------------------|

(*) tocar rápidamente la cuerda con el dedo índice y el medio las
    veces que piensas que sea necesaria para agarrar el ritmo.



ACORDES DE LA CANCIÓN

D           F#7                Bm    D7
Te vas porque yo quiero que te vayas
    G        B7            Em
a la hora que yo quiera te detengo
  A7                        D
yo sé que mi cariño te hace falta
  B7        Em     A7          D
por que quiera o no yo soy tu dueño

 D            F#7              Bm    D7
Yo quiero que te vayas por el mundo
    G        B7            Em
y quiero que conozcas mucha gente
  A7                         D
yo quiero que te besen otros labios
  B7        Em     A7          D       D7
para que me compares hoy como siempre

CORO:
 G               B7           Em
Si encuentras un amor que te comprenda
 A7                            D
y sientas que te quiere más que a nadie
  F#m          B7            Em
entonces yo daré la media vuelta
            A7                      D
y me iré con el sol cuando muera la tarde
  F#m          B7            Em
Entonces yo daré la media vuelta
            A7                      D   D7
y me iré con el sol cuando muera la tarde

D            F#7              Bm    D7
Yo quiero que te vayas por el mundo
    G        B7            Em
y quiero que conozcas mucha gente
  A7                         D
yo quiero que te besen otros labios
  B7        Em     A7          D       D7
para que me compares hoy como siempre


CORO:
 G               B7           Em
Si encuentras un amor que te comprenda
 A7                            D
y sientas que te quiere más que a nadie
  F#m          B7            Em
entonces yo daré la media vuelta
            A7                      D
y me iré con el sol cuando muera la tarde
  F#m          B7            Em
Entonces yo daré la media vuelta
            A7                      D   D7
y me iré con el sol cuando muera la tarde

D           F#7                Bm    D7
Te vas porque yo quiero que te vayas


E|--------------------------------10----------------------------|
B|--357-7(*)-7/8-7-7̑5-5-5--------11----------------------------|
G|--467--------------------7------10----------------------------|
D|--------------------------------------------------------------|
A|--------------------------------------------------------------|
e|--------------------------------------------------------------|

(*) tocar rápidamente la cuerda con el dedo índice y el medio las
    veces que piensas que sea necesaria para agarrar el ritmo.


Espero que les haya gustado, de acá vendrán más canciones.
Cristian Reyna V.
Versión 2 - La media vuelta (Tablatura para guitarra (TAB))
Un saludo para la promo 2010 del cole tecnico la paz y
un saludo muy especial para la chica mas hermosa del mundo.
te dedico esta cancion xq sos igual de hermosa
                  ---PARA KAREN MI LOKITA LINDA---



Aquí le va el tema:

e|------0-0---0-0-1--0-1-0-------------0-----0------------------|
A|--1---1-1---1-1-3--1-3-1---3-1--1-1--1--3--1--3---1-----------|
D|--2------------------------3-2--2-2-----3-----3---2--3-3-3----|
G|-----------------------------------------------------5-5-5----|
B|--------------------------------------------------------------|
E|--------------------------------------------------------------|

e|--------------------------------------------------------------|
A|-3--1--3-------------------1----------------------------------|
D|-3--2--3---3--2---------0-------3--2--0-----------3--2--------|
G|-----------5--3------2------------------------3---------------|
B|------------------3-------------------------------------------|
E|--------------------------------------------------------------|

 D           F#7                Bm    D7
Te vas porque yo quiero que te vayas
    G        B7            Em
a la hora que yo quiera te detengo
  A7                        D
yo sé que mi cariño te hace falta
  B7        Em     A7          D
por que quiera o no yo soy tu dueño

 D            F#7              Bm    D7
Yo quiero que te vayas por el mundo
    G        B7            Em
y quiero que conozcas mucha gente
  A7                         D
yo quiero que te besen otros labios
  B7        Em     A7          D       D7
para que me compares hoy como siempre

CORO:
 G               B7           Em
Si encuentras un amor que te comprenda
 A7                            D
y sientas que te quiere más que a nadie
  B7                      Em
entonces yo daré la media vuelta
            A7                      D
y me iré con el sol cuando muera la tarde
  A7                      G
Entonces yo daré la media vuelta
 B7           Em    A7          G      D7
y me iré con el sol cuando muera la tarde



Según escuche en varias versiones de esta canción
se repite todo de nuevo si quieren pueden hacerlo
Versión 3 - La media vuelta (Letra y acordes)
Algunos cambios y arreglos...

presto!! ya está mejor

Disfrutenla!!!

Intro  D G E7 Am D G (2x) Am D
    G              B7
Te vas porque yo quiero
        Em    Dm G
que te vayas
      C           E7
a la hora que yo quiera
      Am
te detengo.
    D           C
Yo se que mi cariño
         G  E7
te hace falta
                Am
porque quieras o no
D            G  Am D
yo soy tu dueño.

    G              B7
Yo quiero que te vayas
        Em    Dm G
por el mundo
    C          E7
y quiero que conozcas
      Am
mucha gente.
    D             C
Yo quiero que te besen
        G  E7
otros labios
                Am
para que me compares
D            G  G7
hoy como siempre.

       C         E7
Si encuentras un amor
            Am
que te comprenda
    D
y sientas que te quiere
           G
mas que a nadie.
F   E         E7
  Entonces yo dare
           Am
la media vuelta
                 D
y me ire con el sol
                 G   G7
cuando muera la tarde.
   D
Entonces yo dare
           G   E7
la media vuelta
                 Am
y me ire con el sol
  D               G
cuando muera la tarde.
Versión 4 - La media vuelta (Letra y acordes)
    D              F#7
Te vas porque yo quiero
        Bm    D7
que te vayas
      G           B7
a la hora que yo quiera
      Em
te detengo.
    A7
Yo se que mi cariño
         D
te hace falta
 B7              Em
porque quieras o no
 A7        D
yo soy tu dueño.
      D           F#7
Yo quiero que te vayas 
        Bm    D7
por el mundo
     G          B7
y quiero que conozcas
       Em
mucha gente.
      A7
Yo quiero que te besen
       D
otros labios
 B7             Em
para que me compares
 A7        D      D7
hoy como siempre.
       G           B7
Si encuentras un amor
            Em
que te comprenda
    A7
y sientas que te quiere
           D
mas que a nadie.
   B7
Entonces yo dare 
           Em
la media vuelta
                 A7
y me ire con el sol
                 D
cuando muera la tarde.
   A7
Entonces yo dare
          G
la media vuelta
B7               Em
y me ire con el sol
 A7              G      D7
cuando muera la tarde.

El material contenido en esta página es para exclusivo uso privado y con propósito meramente educativo, se prohibe su reproducción y uso con fines comerciales