No eres nada

Tabs, letra y acordes de 'No eres nada' por Kk urbana

Versiones disponibles: Letra y acordes - Tablatura para bajo (bass tab)

esta es una de las bandas mas representativas del punk
chileno.

INTRO:
G    C#    D#    A#AG(al principio es mas o menos 
lenta y estos acordes van casi toda la cancion)


NO ERES NI FASCISTA NI NAZISTA
NO ERES NI PUNK NI ANARKISTA 
ERES UNA MIERDA KE NO SABE 
NADA DE LA REALIDAD

NO ERES NADA!
NO ERES NADA!

TE DECIDES CONTRA EL SISTEMA
PERO NO VALE LA PENA
KRITIKAS DE LA GENTE LOS ERRORES
KE TE GUSTA KOMETER

NO ERES NADA!
NO ERES NADA!

INTERLUDE:
G    F#    G    G#A
G    F#    G    AG#

AHORA VAN LOS ACORDES DEL INTRO

NOERES NI FASCISTA NI NAZISTA 
NO ERES NI PUNK NI ANARKISTA
ERES UNA MIERDA KE NO SABE
NADA DE LA REALIDAD

NO ERES NADA!
NO ERES NADA!
NO ERES NADA!
NO ERES NADAAA!
Versión 2 - No eres nada (Tablatura para bajo (bass tab))
intro
G |-------------------------------|
D |-------------------------------|x4
A |------7-7-7--8-8-8-------------|
E |5-5-5---------------8-8--7-7---|

DESPUES ES LO MISMO PERO UN POKO MAS RAPIDO

CORO
G |-------------------------------|
D |-------------------------------|x4
A |------7-7-7--8-8-8-------------|
E |5-5-5---------------8-8--7-7---|

no eres nada, no eres nada, no eres nada, "NO ERES NADA"

DESPUES DEL SEGUNDO CORO


G |-------------------------------|
D |-------------------------------|
A |--------------------------------|
E |55555555---33333333---55555555---7777---888--|

G |-------------------------------|
D |-------------------------------|
A |--------------------------------|
E |55555555---33333333---8888---7777

G |-------------------------------|
D |-------------------------------|
A |--------------------------------|
E |5555555555555555---33333333---55555555---7777---888

G |-------------------------------|
D |-------------------------------|
A |--------------------------------|
E |55555555---33333333---8888---7777


G |-------------------------------|
D |-------------------------------|X2
A |----------7-7-7---8-8-8-----|
E |55555555----------------8-8--7-7-

NO ERES NI FACISTA, NI NACISTA...

G |-------------------------------|
D |-------------------------------|
A |------7-7-7--8-8-8-------------|
E |5-5-5---------------8-8--7-7---|


CORO
G |-------------------------------|
D |-------------------------------|x4
A |------7-7-7--8-8-8-------------|
E |5-5-5---------------8-8--7-7---|

no eres nada, no eres nada, no eres nada, "NO ERES NADA"





BUENO ESE ES EL TEMA EN BAJO TIENE UNOS EFECTOS QUE NO
SABIA COMO EXPLICARLOS POR EL TABS PERO NO SON DIFICILES
OJALA LES SIRVA Y ESO

UN SALUDO A MI POLOLA CAMILA I.P.M. TE QUIERO MUCHO.

El material contenido en esta página es para exclusivo uso privado y con propósito meramente educativo, se prohibe su reproducción y uso con fines comerciales