Vivir junto a ti

Tabs, letra y acordes de 'Vivir junto a ti' por Kjarkas

Versiones disponibles: Tablatura para guitarra (TAB) - Letra y acordes - Letra y acordes

Ola amigos esta es mi primera transcripción, es una versión del intro
para guitarra de este hermoso tema.

La guitarra acompaña  arpegiando con los acordes que aparecen:

     REm             LAm         DO              REm
E---17-15-17-15-17-15-13------------------------------/
B------------------------15-13---17-15-17-15-13-13-15-/
G-----------------------------------------------------/
D-----------------------------------------------------/
A-----------------------------------------------------/
E-----------------------------------------------------/

     REm             LAm         DO              REm
E---17-15-17-15-17-15-13------------------------------/
B------------------------15-13---17-15-17-15-13-13-15-/
G-----------------------------------------------------/
D-----------------------------------------------------/
A-----------------------------------------------------/
E-----------------------------------------------------/

  SOL                   REm      LAm             REm
E-10-10-15-15-15-15-13-12-10-----10-10-8-8-8-8-6-8-10-/
B-----------------------------------------------------
G-----------------------------------------------------
D-----------------------------------------------------
A-----------------------------------------------------
E-----------------------------------------------------

  SOL                   REm      LAm             REm  REm LAm     REm LAm
E-10-10-15-15-15-15-13-12-10-----10-10-8-8-8-8-6-8-10----8-10--------8-10
B------------------------------------------------------------------------
G------------------------------------------------------------------------
D------------------------------------------------------------------------
A------------------------------------------------------------------------
E------------------------------------------------------------------------


MUCHA GRACIAS ESPERO LES HAYA SERVIDO
Versión 2 - Vivir junto a ti (Letra y acordes)
Intro:  REmLAm -  DO  - REm        /2 veces
      SOL REmLAmREm       /2 veces
      DoM – Rem – DoM – Rem

                   LA#                     LAm
A)Quiero llevarte amor mío, sobre un sueño volando
                       SOL                         REm
Sentir el cielo en las manos, sentir tu cuerpo vibrar
                LAm-DO                  REm
Quiero que vengas conmigo, amarnos una vez más


               LA#                         LAm      
A)Eres mi día mi noche, fuego que abraza mi piel
                         
                 SOL                    REm
Eres tú que enloquece cada rincón de mi ser
                     LAm-DO             REm
Quiero vivir junto a ti un amor de verdad

           
        LAm-DOm-REm             LAm      REm
B)Ayayayay amándote, donde tú estés amándote
     LAm-DOm-REm            LAm      REm
Ayayayay amándote, quiero vivir amándote


Zampoñas:Rem–Lam–DoM–Rem–La#-Lam–DoM–Rem

Luego se repite todo y termina con zampoña


Kjarkas vengan a chile, por favor,
Versión 3 - Vivir junto a ti (Letra y acordes)
 Quiero llevarte amor mio
  (REm)          (SIb)
 sobre un sueño volando
                 (FA7)
 sentir el cielo en las manos
                   SOL 
 sentir tu cuerpo vibrando
                    (REm)
 Quiero que vengas conmigo
                   (FA7)
 amarnos una ves mas...
  (SOL )         (REm)
 Eres mi dia y mi noche
  (SIb)
 fuego que abraza mi piel
                    (FA7)
 eres tu que enloquece
               (SOM)
 cada ricon de mi ser
              (REm)
 quiero vivir junto ati
  (SOL )
 un amorrr de verdad
  (DO )          (REm)
 ayayay amandote donde tu estes amandote..
  (SOLM)(DO -REm)      (DO )         (REm)

 Espero que les agrade ,la verdad es que no se acerca mucho ala
 perfeccion ,ojale les agrade.

El material contenido en esta página es para exclusivo uso privado y con propósito meramente educativo, se prohibe su reproducción y uso con fines comerciales