Sol de los Andes

Tabs, letra y acordes de 'Sol de los Andes' por Kjarkas

Versiones disponibles: Tablatura para guitarra (TAB) - Letra y acordes

 Hola todos! Aquí les envío La Tabulación para charango
 del intermedio de esta canción. Esta es de la versión
 de -El Concierto del Siglo-. Que les aproveche!



 E|---0---1-1-0---------|----0---1-1---5-3-1-5--|
 A|---------------------|-----------------------|
 E|---------------------|-----------------------|
 C|--2---2-------2-0-2--|--2---2----------------|
 G|---------------------|-----------------------|


 E|-0h1-1-1---1-1-0-----|
 A|-------------------0-|
 E|---------------------|
 C|-0h2-2-2---2-2---2---|
 G|---------------------|


 E|---------------------|--0h3-3-3---3-5-3-5---||
 A|-0h2-2-2---2---2---0-|----------------------||.
 E|---------------------|----------------------||.
 C|---------2---2---2---|--0---0-0---0-------2-||
 G|-0---0-0-------------|----------------------||


 E|----0---1-1-0--------|---0-1-3-5-5--3-1--0-1-|
 A|---------------------|-----------------------|
 E|---------------------|-----------------------|
 C|--2---2-------2-0-2--|-2---------------------|
 G|---------------------|-----------------------|
Versión 2 - Sol de los Andes (Letra y acordes)
Espero que les guste esta canción, me costo mucho sacarla


REm                 DO               REm
Deje mi tierra y mi mundo en la montaña

FA               DO             REm
La pachamama sin sueños va quedando

SOLm                             SIb 
la flor silvestre al viento no sonríe

REm       DO         LAm    DO       REm
los viejos sauces no juegan con el agua

REm                 DO              REm
/Entre el polvo del camino fue buscando

FA              DO           REm
allí deje mis raíces en la tierra

SOLm                          SIb 
mientras el tiempo pasa y va secando

REm        DO         LAm    DO         REm
con la garganta del tiempo sopla el viento

REm             SOLm
/sol...de los Andes...

SIb         DO        FA 
vuelvo a mi tierra morena

             DO                   REm
A LAbrar sus sueños junto a su mañana /  Bis


Cualquier duda o sugerencia me la mandan a mi msn =P X0_Kenneth_0X@hot.....

El material contenido en esta página es para exclusivo uso privado y con propósito meramente educativo, se prohibe su reproducción y uso con fines comerciales