Ave de cristal

Tabs, letra y acordes de 'Ave de cristal' por Kjarkas

Versiones disponibles: Tablatura para guitarra (TAB) - Tablatura para guitarra (TAB) - Letra y acordes - Letra y acordes

Ritmo: Chuntunqui 
Autor: Gonzalo Hermosa
Tono Original de la grabación: Dm o Rem

    Esta canción se la dedico a Martha <>….
Gracias por todo...

    No se lo pierdan el DVD de los Kjarkas, próximamente el 10 de julio, del
2004 esta super...  con funciones de karaoke, las opciones en varios idiomas 
y ademas en tema aparte canciones nuevas ¡que mas se puede pedir!....



    Basta de bla bla ahora nos vamos a las especificaciones de la canción..
el signo ~ significa alargar el sonido, las demas son simbolo bien conocidos...
y si no las conoces averigua hombre averigua...

    Necesitamos capo en el 5º traste o solo toquen la canción en Rem 
normal con las notas de las demás colaboraciones de esta canción, yo 
les recomiendo usar capo porque les ayudara en las partes de punteada... 
por fin hagan lo que les venga en gana, pero tóquenla y ojo que les salga 
bien... o sino mejor no la toquen.... no vaya a ser que me estén sacando 
una nueva versión y eso se llama plagio.....

Arpegios: Esto lo de los arpegios va por toda la canción...

e |------------------|      P = Pulgar,     
B |---------○a-------|      i = Índice,     
G |-------○m--○m-----|      m = Medio  
D |----○i-------○i---|      y por último (no nos hagamos) 
A |-○p---------------|      obviamente  a = Anular    
E |------------------|      

Por si no lo sabían...(para los recién iniciados)

Ahora si empezaremos... la canción va así... 

Intro en guitarra: 

e --------------|
B -------6------|
G -----7---7----|
D ---7-------7--|
A -5------------|
E --------------| (esto se toca 4 veces en la versión en vivo, para        
                   la grabación en estudio son solo 2 veces)
 
-5~----------|---------5-6-8~-6-6-5-6~---|-10~--8-8-7-8~---| 
----8-8-6-6~-|---5-6-8-------------------|-----------------|
-------------|-7-------------------------|-----------------|
-------------|---------------------------|-----------------|
-------------|---------------------------|-----------------|
-------------|---------------------------|-----------------|

-8-10-12-12-10-10-8-8h10-6-6h8-5-5h6p5---5-6-5~--|
---------------------------------------8---------|
-------------------------------------------------|
-------------------------------------------------|
-------------------------------------------------|
-------------------------------------------------|

---------------------------------|
-8-6-6/10~--8-6-6/11~---10-11-5--|
---------------------------------|
---------------------------------|
---------------------------------|
---------------------------------|


 Am                         Dm
No se acaba el mundo, cuando un amor se va,
 F                      Dm         E7
no se acaba el mundo y se derrumbaráaaa,
 Am                          Dm
Si fue verdadero, tras sus hueeellas volverá,
 G                       F           E7
si no fue sincero, otro lo reemplazaráaaa.

 Am                         Dm
No se acaba el mundo, cuando un amor se va,
 F                         Dm         E7
no se acaba el mundo y no se derrumbaráaaa,
 Am                                Dm
No hay lluvia en el alma, que no acabe con un sol,
G                             F          E7          Am
y se limpie el cielo, cuando deja de lloveeer de lloveeeer...


Am           Dm             G              C
Y es el corazóooon, como un aaaave de cristal,
                   F        Dm                  F          E7
que es tan frágil deeee rompeeeer, tan difícil deeee entendeeeer...
Am           Dm              G                  C
Y es el corazóooon, tomo el deeeestino taaan crueeeel,
             F        Dm                 F        E7
tan difícil deeee torceeeer y tan fácil deeee perder...
        Am  G              Am
es el amor..       es el amor...


Intermedio y final en Zampoña arreglada para guitarra:

e -6-5~--5~--10-10-8-8-6-6-5-6-8-6~---|-6-8-12-12~--10-10~--8-8---5-6-5~--|
B ------------------------------------|-------------------------8---------|
G ------------------------------------|-----------------------------------|
D ------------------------------------|-----------------------------------|
A ------------------------------------|-----------------------------------|
E ------------------------------------|-----------------------------------|

-----5~--6-5~--5~--10-10-8-8-6-6-5-6-8-6~--|
-8-6---------------------------------------|
-------------------------------------------|
-------------------------------------------|      
-------------------------------------------|
-------------------------------------------|

6-8-15-15~--13-13-12-12-10-10-8-8---5-6-5~--|---------------12-10-12~--|
----------------------------------8---------|-8-6-10~------------------|
--------------------------------------------|---------9-7-9~-----------|
--------------------------------------------|--------------------------|
--------------------------------------------|--------------------------|
--------------------------------------------|--------------------------|

Ojo: Esta parte es solo para el final de la canción

e ---5----|
B ---6----|
G ---7----|
D ---7----|
A ---5----|
E ---5----| ... fin ...

      
Se repite toda la canción completa y termina con la parte en zampoña más 
la partecita adjunta al final....

    Peticiones, correcciones, consultas, comentarios, consejos, reclamos, 
pasiones, chismes, desamores, intrigas, declaraciones, 
reconocimientos de hijos...jejeje, etc. 
mi e-mail astron_ariel@msn.com.
Versión 2 - Ave de cristal (Tablatura para guitarra (TAB))
Esta canción esta hecha en  base a la canción en vivo
El arpegio de entrada puede ser en - Re m- o -Do # m
para sacarla bien necesariamente tienen que escucharla,si?suerte!
Primera guitarra:
Este es el formato si es en Re m:
e------o-----      e----1------1-----0------0-----1-----1------
b----o--o----      b---3-3---3-3---3-3---3-3---3-3---3-3----
g---o----o---      g--2---2-2---2-2---2-2---2-2---2-2---2---
d-o-------o--      d-0-----0------0-----0------0-----0------0--
a------------      a-------------------------------------------
e------------      e-------------------------------------------

Este es el formato en Do # m:
e----o----         e----1------1------0-----0------1-----1-
b---o-o---         b---3-3---3-3---3-3---3-3---3-3---3-3---
g--o---o--         g--2---2-2---2-2---2-2---2-2---2-2---2--
d---------         d---------------------------------------
a-o-------         a-0-----0------0-----0------0-----0-----
e---------         e---------------------------------------
aquí entra la segunda guitarra, mientras la segunda sigue arpegiando
la notas y cambios a lo largo de la canción.

e-4-4-----------------4-7-5-5-4-5-7-5-+9-7-7-6-7h9p7
b-----7-7-5-5-4-5-7-------------------+-------------
g--------------6----------------------+-------------

e-7-9-11-11-9-9-7-7-5-5------------+----------------------------------
b-----------------------9-7-9-10-9-+7-5-5/9-9-9-7-5-5/10-10-10-9-104-4
g----------------------------------+----------------------------------


e-4-4-----------------4-7-5-5-4-5-7-5-+9-7-7-6-7h9p7
b-----7-7-5-5-4-5-7-------------------+-----------------
g--------------6----------------------+-----------------

e-7-9-11-11-9-9-7-7-5-5------------+--------------------------
b-----------------------9-7-9-10-9-+7-5/9-9-7-5-10-10--9-10-4-
g----------------------------------+--------------------------


Dm
No se acaba el mundo

(aca y en (*) viene un punteo del cual
tengo algunas dudas todavía)

      Gm
cuando un amor se va
(*)
Bb
no se acaba el mundo
                A7
y no se derrumbara
Dm
Si fue verdadero
e-9-11-12-11-9-9-----
          Gm
tras sus huellas volveran
e-9-11-12-9-12-11----
C
si no fue sincero
     Bb           A7
otro lo reemplazara

No se acaba el mundo
(bajo)
d-------------------4-4---3-3---2-2
a-4-4-3-3-2-2/(*)4-4-4-4-4-4-4-4-4-4
(*)
e----9-9---8-8---7-7-
b-9-9-9-9-9-9-9-9-9--
g--------------------


      Gm
cuando un amor se va

Bb
no se acaba el mundo
                A7
y no se derrumbara
Dm
No hay lluvia en el alma
g-7-9-10-7-7-----------
        Gm
que no acabe con un sol
g-7-9-10-7-10-9--------

C
ni se limpia el cielo
        Bb        A7           Dm
cuando deja de llover... de llover

Y es el corazon
        C           F
como un ave de cristal
            Bb          Gm
que es tan fragil de romper
       Bb            A7   Dm
tan dificil de entender

Y es el corazon
         C             F
como el destino tan cruel
       Bb          Gm
tan dificil de torcer
       Bb          A7
y tan facil de perder
        Dm  C       Dm
es el amor...es el amor

b----5-6-6-5-----------
g-5/7---7---7-6--------



aca entra la zampoña!!!!
Esto se toca con un tipo de zampoña pequeña.

A-re^^^^do--+-----mi mi-----do do--do--do-+
I---------si+si si-----re re-----si--re---+

A-do do------mi mi-----la-do---la---------+
I------si^^fa-----re re-si---si-sol si----+

A-re^^do--+-----mi mi-----do do-do-do-+
I-------si+si si-----re re-----si-re--+

A-do do-----sol sol-----mi mi---------+
I------si-la-------fa fa-----re re----+

A-la-do---+la-----------------fa-fa------mi--+
I---si-si-+--sol---si si si si--mi-sol-fa-fa-+

Aca les va el acompañamiento que le hace
LA guitarra A LA zampoña:

e-5-4-4-9-9-7-7-5-5-4-5-7-5+5-7-11-11-99-7-7-4-5-4-+
b-------------------------------------------7------+

e----4-5-4-4----9-9-7-7-5-5-4-5-7-5+
b-7-5------------------------------+

e-5-7---14-14-12-12-11-11-9-9-7-7-4-5-4-+
b--------------------------------7------+

e------------11-9-11-+
b-7-5-10-------------+
g-------8-6-9--------+

Dm
No se acaba el mundo
(*)
      Gm
cuando un amor se va
(*)
Bb
no se acaba el mundo
                A7
y no se derrumbara
Dm
Si fue verdadero
e-9-11-12-11-9-9-----
          Gm
tras sus huellas volveran
e-9-11-12-9-12-11----
C
si no fue sincero
     Bb           A7
otro lo reemplazara

No se acaba el mundo
(bajo)
d-------------------4-4---3-3---2-2
a-4-4-3-3-2-2/(*)4-4-4-4-4-4-4-4-4-4
(*)
e----9-9---8-8---7-7-
b-9-9-9-9-9-9-9-9-9--
g--------------------


      Gm
cuando un amor se va

Bb
no se acaba el mundo
                A7
y no se derrumbara
Dm
No hay lluvia en el alma
g-7-9-10-7-7-----------
        Gm
que no acabe con un sol
g-7-9-10-7-10-9--------

C
ni se limpia el cielo
        Bb        A7           Dm
cuando deja de llover... de llover

Y es el corazon
        C           F
como un ave de cristal
            Bb          Gm
que es tan fragil de romper
       Bb            A7   Dm
tan dificil de entender

Y es el corazon
         C             F
como el destino tan cruel
       Bb          Gm
tan dificil de torcer
       Bb          A7
y tan facil de perder
        Dm  C       Dm
es el amor...es el amor

b----5-6-6-5-----------
g-5/7---7---7-6--------


zampoña
A-re^^^^do--+-----mi mi-----do do--do--do-+
I---------si+si si-----re re-----si--re---+

A-do do------mi mi-----la-do---la---------+
I------si^^fa-----re re-si---si-sol si----+

A-re^^do--+-----mi mi-----do do-do-do-+
I-------si+si si-----re re-----si-re--+

A-do do-----sol sol-----mi mi---------+
I------si-la-------fa fa-----re re----+

A-la-do---+la-----------------fa-fa------mi------MI-+
I---si-si-+--sol---si si si si--mi-sol-fa-fa……………---+

Esta cancion es muy buena ya que tiene mucho contenido…
Espero que les guste se la dedico a todos los que perdieron un amor.
Los quiero a todos chao!!!!!
Y ya saben cualquier cosa a mi e mail
Versión 3 - Ave de cristal (Letra y acordes)
Dm
No se acaba el mundo
     Gm
cuando un amor se va
Bb
no se acaba el mundo
                A7  
y no se derrumbara
Dm
Si fue verdadero 
          Gm 
tras sus huellas volveran
C
si no fue sincero
     Bb           A7
otro lo reemplazara

No se acaba el mundo...etc
Dm
No hay lluvia en el alma
        Gm
que no acabe con un sol
C
ni se limpia el cielo 
        Bb        A7           Dm  
cuando deja de llover... de llover

Y es el corazon
        C           F
como un ave de cristal
            Bb          Gm
que es tan fragil de romper
       Bb            A7   Dm
tan dificil de entender

Y es el corazon
         C             F
como el destino tan cruel
       Bb          Gm
tan dificil de torcer
       Bb          A7
y tan facil de perder
        Dm  C       Dm
es el amor...es el amor

Se repite toda la cancion.
Versión 4 - Ave de cristal (Letra y acordes)
 Dm 
No se acaba el mundo
      Gm   
Cuando un amor se va
 Bb 
No se acaba el mundo
     Bb     E7   A7
Y no se derrumbará
 Dm 
Si fue verdadero
          Bb  
Tras sus huellas volverá
C7
Si no fue sincero
     Gm     E7   A7
Otro le reemplazará.

 Dm
No se acaba el mundo
 Gm 
Cuando un amor se va
 Bb 
No se acaba el mundo
 Bb        E7  A7
Y no se derrumbará
 Dm 
No hay lluvia en el alma
 Bb 
Que no acabe con un sol
 C7 
Y se limpie el cielo
       Gm   E7    A7            Dm
cuando deja de llover...  de llover...


 Dm         Bb
Y es el corazón
 C7     F
Como un ave de cristal.
 Gm 
Es tan frágil de romper,
 Bb                 A7
Tan difícil de entender.
 Dm         Bb
Y es el corazón
 C7  F               Am
Como el destino tan cruel;
 Gm 
Tan difícil de torcer,
      Bb   E7     A7  
Y tan fácil de perder.
 Dm  
Es el amor, es el amor...

El material contenido en esta página es para exclusivo uso privado y con propósito meramente educativo, se prohibe su reproducción y uso con fines comerciales