Al final

Tabs, letra y acordes de 'Al final' por Kjarkas

Versiones disponibles: Tablatura para guitarra (TAB) - Tablatura para guitarra (TAB) - Letra y acordes

 Hola todos! Aquí les envío La Tabulación para charango
 de esta canción de los Kjarkas. Esta es la versión de
 "El Concierto del Siglo". Que les aproveche!



 E|-----0-0h1-0---0h1-|--0h1--1-1-1-0-------------|
 A|-0-----------------|---------------------------|
 E|-------------------|---------------------------|
 C|---2---------2-----|---------------2-0---------|
 G|-------------------|-------------------3-2-0---|


 E|--------0-----0----|---------------1---0-------|
 A|-------------------|---------------------------|
 E|-00----------------|---------------------------|
 C|------1---2-1------|-1-0-1-2-1---1---1---3-2---|
 G|----2--------------|---------------------------|


 E|-----0-0h1-0---0h1-|-------0---0---0---2---2---|
 A|00-----------------|---4-----------------------|
 E|-------------------|-------------1---1---1---3-|
 C|---2---------2-----|-2---2---2-----------------|
 G|-------------------|---------------------------|
                        (Esta parte va muy rápido)


 ACOMPAÑAMIENTO DE LA QUENA       E|--0h1---------|
                                  A|---------0----|
 Gm - C - F7 - Bb - A - Dm - D7   E|------------1-|
                                  C|------2-------|
 Gm - C - F7 - Bb - A - Dm   -->  G|--------------|
                                     (Final en Dm)


 Dm
 Ves... llegamos al final...



    Gm           C          F7          Bb
 E|--3--     E|--3--     E|--5--     E|--1--
 A|--1--     A|--3--     A|--0--     A|--1--
 E|--3--     E|--0--     E|--1--     E|--1--
 C|--2--     C|--0--     C|--0--     C|--2--
 G|--0--     G|--0--     G|--2--     G|--3--


     A          Dm          D7
 E|--0--     E|--1--     E|--2--
 A|--0--     A|--0--     A|--0--
 E|--0--     E|--1--     E|--2--
 C|--1--     C|--2--     C|--0--
 G|--2--     G|--2--     G|--2--
Versión 2 - Al final (Tablatura para guitarra (TAB))
Es mi primera trascripcion pero yo solo la transcribo el autor de esto
es mi profe de MUSICA "LUIS CARLOS CASTILLO NATTES"
les mando el punteo
pero es pa q lo saquen bn ok?

e ||------0-1-0---1--|-1-1-1-1-0------------|-------0-----0--|
B ||----3-------2----|-----------3-1--------|---------3-2----|
G ||--2--------------|---------------3-2-0--|---0-2----------|
D ||-----------------|----------------------|-2--------------|
A ||-----------------|----------------------|----------------|
E ||-----------------|----------------------|----------------|

e ||-------------|---1---0----|--5-4-5-6-5-4-5-0-3-1--|--3--|
B ||--2-1-2-3-2--|-2---2---3--|-----------------------|--3--|
G ||-------------|------------|-----------------------|--3--|
D ||-------------|------------|-----------------------|--4--|
A ||-------------|------------|-----------------------|--4--|
E ||-------------|------------|-----------------------|--3--|


REm
Ves, llegamos al final, al final de este amor
                                     SOLm
Que yo quise cuidar toda una vida entera
DO 
Todo, todo cuanto se dio, por salvar este amor
               FA         LA7
De lo poco que queda, ah, ah

REm                              MI7
El amor que al final,lograrás olvidar
               SOLm   LA7              REm
En cambio yo jamas, solo cuando yo muera
REm                              LA7
El amor que al final,lograrás olvidar
               SOLm   LA7           REm
En cambio yo jamas, solo cuando yo muera


REm                              SIb       SOLm        LA7
El intentar, el regresar son los labios que no he de besar
        SOLm      LA7                            REm
será volver a remover las cenizas del fuego del ayer.
REm                              SIb       SOLm        LA7
El intentar, el regresar son los labios que no he de besar
        SOLm      LA7                      REm
Será volver a remover las heridas dejadas ayer.


Ves, llegamos al final.......

OJO: EL RITMO ES TAQUIRARI
ESTO VA PORQ LOS RBS SEAN CONOCIDOS A NIVEL INTERNACIONAL VIVAN
LOS RBS: BURRO, SEXY, CORCHO, PRIMO, OVEJA, JHON, GUS
Versión 3 - Al final (Letra y acordes)
esta canción es de ritmo Taquirari. aqui les va

Int. :
REm RE7 SOLm LA  REm RE7 SOLm
DoM FaM Rem Solm SibM LaM Rem Re7
DoM FaM Rem Solm LaM Rem

REm
Veeess, llegamos al final, al final de este amor
               REm
que yo quise cuidar
                    SOLm SOLm+7 SOLm7 Solm6/Mi
toda una vida enteraaaaa

DO 
Todo, todo cuanto se dio, por salvar este amor
               FA         LA7
de lo poco que queda, ah, ah

REm             REm REm+7 REm7 REm       LA7
El amor que al final,       lograrás olvidar
               SOLm   LA7           REm
en cambio yo jamaaas, solo cuando yo muera
                REm REm+7 REm7 REm       LA7
el amor que al final,       lograrás olvidar
               SOLm   LA7           REm
en cambio yo jamaaas, solo cuando yo muera
(se repite desde el principio)

REm     REm  REm     REm
El intentar, el regresar
REm     SIb                  LA7
son los labios que no he de besar
        SIb       LA 
será volver a remover
                LA7        REm
las cenizas del fuego del ayer.(bis)

Cualquier pregunta o sugerencia,
aganmela saber escribiendome a Hem_ric@latinmail.com
sobre los acordes, si no entienden preguntenme.
GRACIAS.

El material contenido en esta página es para exclusivo uso privado y con propósito meramente educativo, se prohibe su reproducción y uso con fines comerciales