No puedo amarte

Tabs, letra y acordes de 'No puedo amarte' por Gian Marco

Versiones disponibles: Tablatura para guitarra (TAB) - Tablatura para guitarra (TAB) - Letra y acordes

Intro

e|----15-------12-----------------------12------
b|--------15--------12---13---13---15-------/13-  
g|----------------------------------------------  
D|----------------------------------------------    3 veces
A|----------------------------------------------
E|----------------------------------------------



e|----13---12-------------12--------------------
b|--------------15---13--------13--------------- 
g|----------------------------------13----------  
D|----------------------------------------------   
A|----------------------------------------------
E|----------------------------------------------

e|----------------------------12---13-----------
b|-------------12---13---15---------------------  
g|---12---14------------------------------------  
D|----------------------------------------------    
A|----------------------------------------------
E|----------------------------------------------



e|----15-------12-----------------------12------
b|--------15--------12---13---13---15-------/13-  
g|----------------------------------------------  
D|----------------------------------------------    3 veces
A|----------------------------------------------
E|----------------------------------------------



e|---13---12------------------------------------    
b|-------------15---13--12--13------------------    
g|-------------------------------14-------------    
D|----------------------------------------------    
A|----------------------------------------------
E|----------------------------------------------
Versión 2 - No puedo amarte (Tablatura para guitarra (TAB))
INTRO:

e|--------------------------------------------------8----------------|
B|--4/5-4/5-8-5------5/3-1-5/6..-6-5-------------10---9/10-9/10-8..--|
G|--------------5--------------------5-------------------------------|
D|-----------------7-------------------6/7-5..-----------------------|
A|-------------------------------------------------------------------|
E|-------------------------------------------------------------------|

SOLO: (Despues del 1er. coro)

Solo:

e|--8---8-10-8---------8-8---8---8-10-11-10-8-----12..----|
B|----5--------10-10-9-----9---9--------------9-8---------|
G|--------------------------------------------------------|
D|--------------------------------------------------------|
A|--------------------------------------------------------|
E|--------------------------------------------------------|

e|-10-8-10-8-15-11-8-11-8-11-11-8-15..--|
B|--------------------------------------|
G|--------------------------------------|
D|--------------------------------------|
A|--------------------------------------|
E|--------------------------------------|


SOLO: (Desoues del 2do. coro)

e|--8-10h11-10h11-8-10h11-10h11---8---8-10-8-11-10-8-------|
B|------------------------------9---8----------------9-8---|
G|---------------------------------------------------------|
D|---------------------------------------------------------|
A|---------------------------------------------------------|
E|---------------------------------------------------------|

e|--15-12-10-8-3..-5..-10..-12..--|
B|--------------------------------|
G|--------------------------------|
D|--------------------------------|
A|--------------------------------|
E|--------------------------------|
Versión 3 - No puedo amarte (Letra y acordes)
Intro: DO/DO7/FA/FAm/SOL/DO

DO          DO7                    FA
Algo, me esta pasando desde que te vi,

   FAm                   DO          SOL
lo unico que hago es escribir, sin razon.

DO        DO7                          FA
Hablas de todo un poco cuando estas conmigo

   FAm                   DO               SOL
y cualquier tema es entretenido, si estas tu.

DO          DO7                    FA
Cuentame, cuentame de todo y sin medida

FAm                     DO        SOL
quiero descubrirte cada dia, cada dia.

  DO        DO7                         FA
Y trato de descubrir lo que yo estoy sintiendo

   FAm                         DO         SOL
de descifrar tus gestos conversando y riendo

Coro:

       DO    MI7                          LAm/FA
No puedo, no puedo quererte aunque me muera

   RE7                       SOL
necesito pensar aunque no quiera,

          DO     MI7        LAm/FA
no puedo amarte, no puedo amarte

       DO
ahora no.




Solo: DO/DO7/FA/FAm/SOL/DO



       DO    MI7                          LAm/FA
No puedo, no puedo quererte aunque me muera

   RE7                       SOL
necesito pensar aunque no quiera,

          DO     MI7        LAm/FA
no puedo amarte, no puedo amarte

       DO
ahora no.

El material contenido en esta página es para exclusivo uso privado y con propósito meramente educativo, se prohibe su reproducción y uso con fines comerciales