Donde Estarás

Tabs, letra y acordes de 'Donde Estarás' por Gian Marco

Versiones disponibles: Tablatura para guitarra (TAB) - Tablatura para guitarra (TAB) - Letra y acordes

Intro:
    C                         Am
E---3-----0-------------0-----3-----0------------0---
B------3-----1----1--3-----1-----3-----1----1--3---1-
G----------------------------------------------------
D----------------------------------------------------
A---3--3-----3----3--------3--0--0-----0----0------0-
E----------------------------------------------------

    Fm                      G7    Am
E---3-----0-----1--0------------------
B------3----1---------3--1--0--1------
G---------------------------------2---
D-------------------------------------
A---------------------------0--0--0---
E---1-------1-------------------------


     Am                   F
Intentamos esconder la sonrisa de un ayer
intentamos escapar de los besos y el jugar
         C                        E
tal vez no te vuelva a ver, el verano se marcho
        F                          G7
el sol fue nuestro testigo, ahora solo soy tu amigo.

Tu en tu casa yo en la mia, amor de telepatia
un iluso en la distancia y en mis manos tu fragancia
una parte de tu pelo se ha enredado entre mis labios,
si te pienso es un consuelo, si te veo es un milagro.

CORO:
    C                         Am
E---3-----0-------------0-----3-----0------------0----
B------3-----1----1--3-----1-----3-----1-----1--3---1-
G--------------0-------------------------2------------
D---------------2--------------------------2----------
A---3--3-----3----3--------3--0--0-----0-----0------0-
E-----------------------------------------------------
Donde estarás te estoy esperando en el mar yo te estoy

    Fm                      C    G  
E---3-----0-----1--0--------0----------
B------3----1---------3--1-----1-------
G-------------1---------------------0--
D--------------2-----------------------
A---------------------------3--3-------
E---1--1----1----------------------3---
guardando un lugar y no te veo llegar

   (G)       G7
E----------------
B----------------
G----------------
D----------0-2-3-
A----0-2-3-------
E--3-------------

    C                         Am
E---3-----0-------------0-----3-----0------------0----
B------3-----1----1--3-----1-----3-----1-----1--3---1-
G--------------0-------------------------2------------
D---------------2--------------------------2----------
A---3--3-----3----3--------3--0--0-----0-----0------0-
E-----------------------------------------------------
Donde estarás te estoy esperando en el mar yo te estoy

    Fm                      G7    Am
E---3-----0-----1--0---------------5--
B------3----1---------3--1--0--1---5--
G----------------------------------5--
D----------------------------------7--
A---------------------------0--0---7--
E---1--1----1----------------------5--
guardando un lugar y no te veo llegar
 

Las veredas de mi calle tienen tu nombre grabado
y las notas del piano (rapidamente hacer este riff)
E--------7-8-7----7--
B-----10-------10----
G---9----------------
D--------------------
...en recuerdos se quedaron
una carta con un beso se quedo en el escritorio
si te extraño no te pienso, si te veo me escondo

CORO
Versión 2 - Donde Estarás (Tablatura para guitarra (TAB))
Esta Rola se puede tocar con Capo en el 1er Traste,
pero tambien sin el C=..!

Intro:
    C                         Am
E---3-----0-------------0-----3-----0------------0---
B------3-----1----1--3-----1-----3-----1----1--3---1-
G----------------------------------------------------
D----------------------------------------------------
A----------------------------------------------------
E----------------------------------------------------

    Fm                      G7    Am
E---3-----0-----1--0------------------
B------3----1---------3--1--0--1------
G---------------------------------2---
D-------------------------------------
A---------------------------0--0--0---
E-------------------------------------

    Am                    F
Intentamos esconder la sonrisa de un ayer
      Am                 E          Am
intentamos escapar de los besos y el jugar
       C                    E
tal vez no te vuelva a ver, el verano se marcho
      F                    G7
el sol fue nuestro testigo, ahora solo soy tu amigo.

*
    Am                    F
Tu en tu casa yo en la mía, amor de telepatía
      Am                         E
un iluso en la distancia y en mis manos tu fragancia
       C                       E
una parte de tu pelo se ha enredado entre mis labios,
      F                     G7
si te pienso es un consuelo, si te veo es un milagro.


*
CORO:
    C                         Am
E---3-----0-------------0-----3-----0------
B------3-----1----1--3-----1-----3-----1---
G------------------------------------------
D------------------------------------------
A---3--3----------------------0--0---------
E------------------------------------------
Donde estarás te estoy esperando en el mar,


 Fm                      C    G
E--------0------3-----0-------1--0------------------
B---1--3----1------3----1-----------3--1--0---1-----
G------------------------------------------------2--
D---------------------------------------------------
A-----------------------------------------0---0---0-
E---------------0--0--------------------------------
Yo te estoy guardando un lugar y no te veo llegar,

E---3-----0------
B------3-----1---
G----------------
D----------------
A----------------
E----------------

*

    C                         Am
E---3-----0-------------0-----3-----0------
B------3-----1----1--3-----1-----3-----1---
G------------------------------------------
D------------------------------------------
A---3--3----------------------0--0---------
E------------------------------------------
Donde estarás te estoy esperando en el mar,

   Fm                      C    G
E--------0------3-----0-----1--0-------------------
B---1--3----1------3----1---------3--1--0---1------
G----------------------------------------------2---
D--------------------------------------------------
A---------------------------------------0--0---0---
E---------------0--0-------------------------------
Yo te estoy guardando un lugar y no te veo llegar,

*
  Am                             F
Las veredas de mi calle tienen tu nombre grabado,
  Am
y las notas del piano...

E---1---3-0----------
B-------------3---1--        Si se desea de toca…
G--------------------
D--------------------

      E
...en recuerdos se quedaron,
  C                    E
una carta con un beso se quedo en el escritorio
   F                         G7
si te extraño no te pienso, si te veo me escondo

CORO: Se Repite…
Versión 3 - Donde Estarás (Letra y acordes)
* Consultas:    jitosa@usa.net                  *
*************************************************

Acordes: 

   G7(SOL7)   Am(LAm)     C(DO)      E(MI)     F(FAM)    
   E|-3-|     E|-0-|      E|-0-|     E|-0-|    E|-1-|    
   B|-3-|     B|-1-|      B|-1-|     B|-0-|    B|-1-|    
   D|-4-|     D|-2-|      D|-0-|     D|-1-|    D|-2-|    
   G|-0-|     G|-2-|      G|-2-|     G|-2-|    G|-3-|    
   A|-5-|     A|-0-|      A|-3-|     A|-2-|    A|-3-|    
   E|-3-|     E|-0-|      E|-0-|     E|-0-|    E|-1-|    

   
      Am
   Intentamos esconder 
       F
   la sonrisa de un ayer
      Am                     F
   intentamos escapar de los besos
         Am
   y el jugar, tal vez
   C                      E
   no te vuelva a ver, el verano se marcho
          F
   el sol fue nuestro testigo
            G7
   y ahora solo soy tu amigo 

   
      Am
   Tu en tu casa yo en la mia
        F
   amor de telepatia
      Am
   un iluso en la distancia
             F
   y en mis manos tu fragancia
       C                         E
   una parte de tu pelo se ha enredado 
                               F
   entre mis labios, si te pienso es un 
                       G7
   consuelo, si te veo es un milagro.


   C                        Dm
   Donde estaras te estoy esperando 
                                     F
   en el mar yo te estoy guardando un lugar 
                 C (Am)
   y no te llevo llegar. (BIS)
 

   Am
   Las veredas de mi calle 
             F                    Am
   tienen tu nombre gravado y las notas
                   F
   del piano en recuerdos se quedaron 
       C                    E
   una carta con un beso se quedo en el 
                           F
   escritorio, si te extraño no te pienso 
                   G
   si te veo me escondo


   C                        Dm
   Donde estaras te estoy esperando 
                                     F
   en el mar yo te estoy guardando un lugar 
                 C (Am)
   y no te llevo llegar. (BIS)
    
 
        
  *************************************
  *   Cualquier Consulta escribir a   * 
  *   Jitosa@usa.net      [.)(.]      *
  *   Jimmy Tovar Sanchez             *
  *   Cusco - Peru        [FNST]      *
  *************************************

El material contenido en esta página es para exclusivo uso privado y con propósito meramente educativo, se prohibe su reproducción y uso con fines comerciales