Jupiter

Tabs, letra y acordes de 'Jupiter' por Fabiana Cantilo

Versiones disponibles: Letra y acordes - Letra y acordes - Letra y acordes - Letra y acordes - Letra y acordes

Intro: (D  A  Em  G-F#m-Em)  x2

     D      A    Em            G            D     A   Em  G
Lo puedo ver el mundo ya no esta de vuelta para mí lo sé
    D        A      Em             G
ya lo intenté pero hasta el sol parece

     Em        G       Em          G
lastimar algo pasa y está ya sin fuerza

    D     A    Em           G              D  A  Em  G
En Jupiter las almas ya no cargan con su piel   sue-ñan

Em                       G        Em                   G
  no habrá nada que se pueda hacer  que yo pueda remediar

D         A            Em       G            D  A       Em  G  F#m
 Voy a salirme del planeta solamente por un rato a respirar
Em       G       Em        G    A  (D  Em)  x4
  tu azulada flor y tu perdida palidez

      D       A    Em           G
No olvides que un hoyo en el espacio fuiste

Em         G        Em         G  (D  A  Em  G-F#m-Em)  x2
vos la distancia perdí de la tierra

D            A             Em         G            D   A           Em  G
 Se ven las sombras del futuro como gritos en el tiempo niebla de sol

Coro 1

Solo: (D  A  Em  G-F#m-Em)  x2

Coro 1
Versión 2 - Jupiter (Letra y acordes)
Tipo de gaita: Diatônica
Tom: qualquer

+5 +6 -6 -6 +7 -7 +6 +7 -8 +7 -7 -6 -7 -6 +6 +5
+5 +6 -6 -6 +7 -7 +6 +7 -8 +8 +8 +8 -8 +7 -8 +7
Versión 3 - Jupiter (Letra y acordes)
D : D6 : G : A : A :              D* = :Dmaj7 D Dmaj7:

D        D6          G          A
VENUS DE MILO IN HER HALF-BAKED SHELL
D              D6        G         A
UNDERSTOOD THE NATURE OF LOVE VERY WELL SHE SAID,
  D              D6                 G              A
A GOOD LOVE IS DELICIOUS, YOU CAN´T GET ENOUGH TOO SOON, 
   D            D6                G           A
IT MAKES YOU SO CRAZY YOU WANT TO SWALLOW THE MOON

D*   D*  G
OHO, OHO JUPITER
D*   D*  G
OHO, OHO BE STILL MY LITTLE HEART
D*   D*  G                       A
OHO, OHO LOVE IS A FLAME NEITHER TIMID NOR TAME

CHORUS:
           D    
TAKE THESE STARS FROM MY CROWN 
        G
LET THE YEARS FALL DOWN
       D
LAY ME OUT IN FIRELIGHT 
       A
LET MY SKIN FEEL THE NIGHT
       D
FASTEN ME TO YOUR SIDE
G       
SAY IT WILL BE SOON 
    Em                G
YOU MAKE ME SO CRAZY, BABY
                  D
COULD SWALLOW THE MOON

(harm)     (harm)
 |-5-|     |-7-| 
 |-5-|     |-7-|
 |-5-|     |-7-|
 |-5-|  D  |-7-| 
 |---|     |---|
 |---|     |---|

   D             D6                G                  A
MY HANDS ARE TWO TRAVELERS THEY´VE CROSSED OCEANS AND LANDS
    D            D6              G              A
YET THEY ARE TOO SMALL ON THE CONTINENT OF YOUR SKIN
D          D6          G              A
WANDERING, WANDERING I COULD SPEND MY LIFE
D             D6             G         A
TRAVELING THE LENGTH OF YOUR BODY EACH NIGHT


D*   D*  G 
OHO, OHO JUPITER 
D*   D*     G
OHO, OHO BE STILL MY LITTLE HEART
D*   D*  G
OHO, OHO LOVE IS A FLAME
       A 
NEITER TIMID NOR TAME

CHORUS

           D 
TAKE THESE STARS FROM MY CROWN
        G
LET THE YEARS FALL DOWN
       D                   
LAY ME OUT IN FIRELIGHT 
       A
LET MY SKIN FEEL THE NIGHT 
       D
FASTEN ME TO YOUR SIDE
    G
AND SAY IT WILL BE SOON 
    Em                G
YOU MAKE ME SO CRAZY, BABY
                  D     Em   G
COULD SWALLOW THE MOON
            D       Em   G
SWALLOW THE MOON

E|-------0--|-------0--|-------0--|-------0-|
B|---------0|---------0|----------|---------|
G|-----4----|-----4----|-----4----|-----4---|
D|---2------|---2------|---2------|---2-----| x2
A|-4--------|-4--------|-2--------|-2-------|
E|----------|----------|----------|---------|

D*   D*  G
OHO, OHO JUPITER
D*   D*  G
OHO, OHO BE STILL MY LITTLE 
D*   D*  G
OHO, OHO LOVE IS A FLAME 
       A
NEITER TIMID NOR TAME 

CHORUS

           D
TAKE THESE STARS FROM MY CROWN
        G
LET THE YEARS FALL DOWN 
       D
LAY ME OUT IN FIRELIGHT
       A 
LET MY SKIN FEEL THE NIGHT
       D 
FASTEN ME TO YOUR SIDE
    G    
AND SAY IT WILL BE SOON
    Em             G
YOU MAKE SO CRAZY, BABY
                  D    Em  G
COULD SWALLOW THE MOON
            D      Em   G
SWALLOW THE MOON
            D      Em   G
SWALLOW THE MOON
            D      Em   G
SWALLOW THE MOON
Versión 4 - Jupiter (Letra y acordes)
Intro: C(add9) F(add9) C(add9) A7sus4 Am7 Bbmaj7(9) C(add9)

 G(add9) Am7(9)
Estou sem sono, não quero dormir
 F(add9 G7(9)(13) C(add9)
Quero viver cada segundo
 G(add9) Am7(9)
Não quero perder nenhum minuto
 F(add9)
Depois que lhe conheci
 G7(9)(13) F(add9)/A C(add9)
Vem morar em Júpiter comigo
 G(add9)
Quem me dera pudesse ver
 Am7(9)
As mesmas cores que você
 F(add9)
Ter certeza que o meu azul
 G7(9)(13) F(add9)/A C(add9)
É tão azul quanto o seu
 G(add9)
Que misturando nossas cores
 Am7(9) F(add9)
Faríamos coisas incríveis
 G7(9)(13) F(add9)/A C(add9)
Vem morar em Júpiter comigo
 G(add9)/B
Deixe eu grudar em você
 Am7(9)
Vem morar em Júpiter comigo
 F(add9) G7(9)(13) C(add9)
Pra adiar meu sono e poder colorir, e construir 
 1
 G(add9)/B
Um planeta Júpiter azul
 Am7(9)
E ter mais tempo livre
 F(add9)
Pra lhe amar, ouvir e sentir
 G7(9)(13) F(add9)/A C(add9)
Vem morar em Júpiter comigo
 G(add9)/B Am7(9)
Quem me dera pudesse morar em Júpiter
 F(add9) G7(9)(13) C(add9)
Lá os anos têm mais horas
 G(add9)/B Am7(9)
O tempo demora de passar
 F(add9) G7(9)(13) C(add9
Queria mudar pra lá agora
Versión 5 - Jupiter (Letra y acordes)
title: jupiter
album: not yet established
music and lyrics by: sean carver
tuning: standard


intro/verse guitar #1:

  A   E   D   E

intro guitar #2:
E:-----------------------------------------7h8h7------------
B:--------------------------------7--------------9-7-9b-----
G:-----------7-8-10*---10b-10b-8b--8-7*----------8-8--------
D:------------------------------------------------------8/2-
A:2/4-5*----------------------------------------------------
E:----------------------------------------------------------
        A E D                          E A E     D      E

verse guitar #2:
E:------------14--13--12-11-10-------------------
B:----9*----12--11--10--9--8--7----------5--7--2-
G:8-10-------------------------7-5*------4--6--2-
D:-----------------------------------------------
A:-----------------------------------------------
E:-----------------------------------------------
  A     E  D                       E  A  D      E

bridge guitar #1:

  C  G  C  G     Em

bridge guitar #2:
E:----------------------------------------------------------------------0
B:---10--10--10--10--10---8-8-8-8-8----10--10--10--10--10---8-8-8-8-8---0
G:-10--10--10--10--10----8-8-8-8-8---10--10--10--10--10----8-8-8-8-8----0
D:8---------------------6-----------8---------------------6-------------2
A:----------------------------------------------------------------------2
E:----------------------------------------------------------------------0
  C                     G           C                     G             Em

chorus both guitars:
E:----------------------------------------------------------------------0
B:6-6-6-6-6-6-6-6-9-9-9-9-9-9-9-9-6-6-6-6-6-6-6-6-9-9-9-9-9-9-9-9-------0
G:5-5-5-5-5-5-5-5-8-8-8-8-8-8-8-8-5-5-5-5-5-5-5-5-8-8-8-8-8-8-8-8---3-3-0
D:3-3-3-3-3-3-3-3-6-6-6-6-6-6-6-6-3-3-3-3-3-3-3-3-6-6-6-6-6-6-6-6---3-3-2
A:3-3-3-3-3-3-3-3-6-6-6-6-6-6-6-6-3-3-3-3-3-3-3-3-6-6-6-6-6-6-6-6---1-1-2
E:3-3-3-3-3-3-3-3-6-6-6-6-6-6-6-6-3-3-3-3-3-3-3-3-6-6-6-6-6-6-6-6---1-1-0

interlude guitar #1:         interlude guitar #2:
E:--------------------            E:----------------------
B:--------------------            B:----------------------
G:3---3-4---4-6---6-0-            G:7---7-8---8-10---10-5-
D:1---1-2---2-4---4-2-            D:X---X-X---X-X----X--X-
A:1---1-2---2-4---4-2-            A:5---5-6---6-8----8--3-
E:1---1-2---2-4---4-0-            E:----------------------

solo guitar #2:
E:11/12/14-11/12/14--15/16/18-15/16/18--7h9h7-7--0-
B:-------------------------------------------9---0-
G:-----------------------------------------------0- repeat
D:-----------------------------------------------2-
A:-----------------------------------------------2-
E:-----------------------------------------------0-

LYRICS:
hello colorful,
i hear you on the radio,
but no violins,
can sing your beauty,
inside,
your radiant eyes,
you've been here before,
seven-teen feet backwards...

hanging from clotheslines,
trying to get dry,
a queens rampage,
tears you up inside,
but the curtains calling,
and im watching you...

hello tasteful,
i am in limbo,
and im watching you sleep,
sweet dreams,
the world,
in a little girl,
it is crushing you,
like you're a porceline doll...

come with me,
embrace a feeling,
the sky's only a ceiling,
tonight's the night,



by sean carver

El material contenido en esta página es para exclusivo uso privado y con propósito meramente educativo, se prohibe su reproducción y uso con fines comerciales