Tu eres rey

Tabs, letra y acordes de 'Tu eres rey' por Danilo Montero

Versiones disponibles: Tablatura para guitarra (TAB) - Tablatura para guitarra (TAB) - Letra y acordes

INTRO: G D C
       G D C

        G         D   C
e------------------------------------------
B------------------------------------------
G-----------7-----7------------------------
D-------5-5---5-5---7-5--------------------
A------------------------------------------
E------------------------------------------ X 4 ... (PUNTEO 1)

G     D     C    G      D       C
 Cuan asombrosas  son Dios, tus obras
Em       D    C  Em       D    C
  Nadie como tu,   nadie como tu
G     D    C    G     D   C
 Te proclamamos, Rey soberano
Em       D    C  Em       D    C
  Nadie como tu,   nadie como tu


         G      C      D
Porque grandes son tus obras
  G        Am   C
Grande es tu poder
     G          D         Em     C
El cielo y la tierra y debajo de ella
    G     D       C
declaran tu eres Rey.



CORO:
         G D C                     G D C
Tu eres Rey,  (PUNTEO 1)  Tu eres Rey   (PUNTEO 1)
         G D C                     G D C
Tu eres Rey,  (PUNTEO 1)  Tu eres Rey   (PUNTEO 1)
Versión 2 - Tu eres rey (Tablatura para guitarra (TAB))
Aqui esta la prima o arreglo de esta canción muy bonita y sencilla.
Aqui está la primera parte ya que se
compone de 4 veces solo que van convinadas

e------------- 10-----------------10-----------------------
B---7----8---------7-------8-------------7-----8--------
G-------------------------------------------------------9---
D-----------------------------------------------------------
A------------------------------------------------------------
E-----------------------------------------------------------

e------------ 10---------------10------------------------------------
B---7----8--------7-------8---------7-----8(prolongado con delay)-
G--------------------------------------------------------------------------
D--------------------------------------------------------------------------
A--------------------------------------------------------------------------
E--------------------------------------------------------------------------

De aqui se repite la primera tablatura
y después la segunda y eso es todo, aqui adjunto
la transcripción de Yeik y Esdras

G     D     C    G      D       C
 Cuan asombrosas  son Dios, tus obras
Em       D    C  Em       D    C
  Nadie como tu,   nadie como tu
G     D    C    G     D   C
 Te proclamamos, Rey soberano
Em       D    C  Em       D    C
  Nadie como tu,   nadie como tu


         G      C      D
Porque grandes son tus obras
  G        Am   C
Grande es tu poder
     G          D         Em     C
El cielo y la tierra y debajo de ella
    G     D       C
declaran tu eres Rey.

PRIMA



e------------- 10-----------------10-----------------------
B---7----8---------7-------8-------------7-----8--------
G-------------------------------------------------------9---
D-----------------------------------------------------------
A------------------------------------------------------------
E-----------------------------------------------------------

e------------ 10---------------10------------------------------------
B---7----8--------7-------8---------7-----8(prolongado con delay)-
G--------------------------------------------------------------------------
D--------------------------------------------------------------------------
A--------------------------------------------------------------------------
E--------------------------------------------------------------------------
Aqui van acompañadas, osea primero la tablatura de arriba
y luego la segunda
hay que escucharla para entenderla


CORO:
         G D C                     G D C
Tu eres Rey,  (PUNTEO 1)  Tu eres Rey   (PUNTEO 1)
         G D C                     G D C
Tu eres Rey,  (PUNTEO 1)  Tu eres Rey   (PUNTEO 1)

e------------- 10-----------------10-----------------------
B---7----8---------7-------8-------------7-----8--------
G-------------------------------------------------------9---
D-----------------------------------------------------------
A------------------------------------------------------------
E-----------------------------------------------------------

e------------ 10---------------10------------------------------------
B---7----8--------7-------8---------7-----8(prolongado con delay)-
G--------------------------------------------------------------------------
D--------------------------------------------------------------------------
A--------------------------------------------------------------------------
E--------------------------------------------------------------------------

Para mejors resultados en el sonido de la guitarra electrica yo uso
Distorción OD-1 2:00
(imaginen que el potenciometro es un reloj que apunta a la 2)
Delay de 50mms
Un Saludo a los chicos de Alabanza de
Ministerios La Roca, Guayaquil - Ecuador,
a Dunamis y  Horeb
Bendiciones
Versión 3 - Tu eres rey (Letra y acordes)
Intro: Melodía | F# G D G F# D F# | E | F# G D G F# D F# | G |

G(add2) D   C(add2) G(add2) D   C(add2)
 Cuan asombrosas  son Dios, tus obras
Em7       D C(add2) Em7     D   C(add2)
  Nadie como tú,   nadie como tú
G(add2) D C(add2) G(add2) D   C(add2)
 Te proclamamos, Rey soberano
Em7       D  C(add2) Em7  D   C(add2)
  Nadie como tu,   nadie como tu

Precoro:
        G(add2) C(add2) Am7(add4)
Porque grandes      son tus obras
     G(add2) Am7(add4)         C(add2)
Grande es    tu                 poder
     G(add2)   D         Em7  D     C(add2)
El cielo y la tierra y debajo de ella
    G(add2) D       C(add2)
declaran tu eres Rey.
Coro:
        G D C                      G D C
Tu eres Rey,  (PUNTEO 1)  Tu eres Rey   (PUNTEO 1)
        G D C                     Em7 D C
Tu eres Rey,  (PUNTEO 1)  Tu eres Rey   (PUNTEO 1)

REPITE TODO.

PRECORO:

        G(add2) C(add2) Am7(add4)
Porque grandes      son tus obras
     G(add2) Am7(add4) C(add2)
Grande es    tu                 poder
     G(add2)   D         Em7  D     C(add2)
El cielo y la tierra y debajo de ella
    G(add2) D     C(add2)
declaran tu eres Rey.

        Em7       D/F#    Am7(add4)
Porque grandes      son tus obras
      Em7         D/F#     C(add2)/G
Grande es    tu                 poder
     G(add2)   D         Em7  D     C(add2)
El cielo y la tierra y debajo de ella
    G(add2) D       C(add2)
declaran tu eres Rey.

1 VEZ CORO…

FINAL:
Em7            D/F#
Tu eres rey, tu eres rey ( tu eres rey),
Am7           C(add2)
Tu eres rey, tu eres rey ( tu eres rey),
G/D           Em                  Fmaj9/G
Tu eres rey, tu eres rey,  tu eres rey.

Saludos y Bendiciones, cualquier consulta me pueden escribir a los correos:
h2s83@yahoo.es / hollman83@gmail.com

El material contenido en esta página es para exclusivo uso privado y con propósito meramente educativo, se prohibe su reproducción y uso con fines comerciales