Inocencia

Tabs, letra y acordes de 'Inocencia' por Ana Layevska

BAJEO
G|------------------|
D|------------------|
A|-1-1--0-0---------| Este bajeo se repite en toda la canción.
E|-----------3-3--1-|

Con la luz...(comienza el BAJEO)

GUITARRA
e|-1-----1------1-----1-------1------------------|
B|----------------------3-------3----------------|
G|---2-2----3-3---3-2-----2-0-----0--------------| <--|
D|----------------------------------3------------|    |
A|-----------------------------------------------|    | La guitarra y el
E|-----------------------------------------------|    | teclado tocan 
                                                      | juntos en ese
TECLADO                                               | orden
e|----------10------------------------11-10-8-10-| <--|
B|-----------------------------------------------|

(El acompañamiento es el mismo en toda la canción: A# F Gm F)

       A#       F             Gm F
Yo no se por que si tengo tanto
       A#     F          Gm F
tengo tan vacío el corazón
       A#       F                Gm F
y me siento en medio de un palacio
       A#       F             Gm F
en la espera de un príncipe azul
       A#       F             Gm F
solamente los ángeles me escuchan
          A#     F         Gm F
y me endulzan con su virtud.

Con la luz de la inocencia puedo caminar
Para rescatarla de entre tanta soledad
Con la luz de la inocencia quiero despertar
Donde el sueño se termine y se haga realidad.

¿Cómo será que ha de sentirse?
¿Dónde estas y cuando llegarás?
¿Es el amor tan puro como dicen?
Dímelo tú estrella fugaz

Con la luz de la inocencia puedo caminar
Para rescatarla de entre tanta soledad
Con la luz de la inocencia quiero despertar
Donde el sueño se termine y se haga realidad.

INTERMEDIO CON TECLADO
e|-6---6-----6---6---------6---6-----6---6---------| 
B|---6---6-----6---6---8-----6---6-----6---6---8-6-|

Inocencia aun no te has marchado
sigues viva dentro de mí.

EFECTO CON TECLADO
e|-6---6-----8---8-----10---10---10-11-10-8-| 
B|---6---6-----6---6-----6----6-------------| Este efecto se repite
                                              varias veces 

Con la luz de la inocencia puedo caminar
Para rescatarla de entre tanta soledad
Con la luz de la inocencia quiero despertar
Donde el sueño se termine y se haga realidad.

Con la luz de la inocencia puedo caminar
Para rescatarla de entre tanta soledad
Con la luz de la inocencia quiero despertar
Donde el sueño se termine y se haga realidad.

La inocencia es nuestra segunda piel
no hay que desesperar que el amor te llegará
y esa soledad que hay en tu interior
un día acabará al escuchar su voz

Con la luz...
La inocencia es nuestra segunda piel
no hay que desesperar que el amor te llegará
y esa soledad que hay en tu interior
un día acabará al escuchar su voz

Con la luz...
y esa soledad que hay en tu interior
un día acabará al escuchar su voz

Con la luz...

Bueno espero les guste =)
Canción dedicada a Vania Valles Coronel (mi Ana Layevska)

El material contenido en esta página es para exclusivo uso privado y con propósito meramente educativo, se prohibe su reproducción y uso con fines comerciales