Mi Razón

Tabs, letra y acordes de 'Mi Razón' por Airbag

Versiones disponibles: Tablatura para guitarra (TAB) - Letra y acordes - Letra y acordes - Letra y acordes

Hola, es verdad, ya hay otras pero no me convencen, para mi esta
Esta mejor. La afinación Eb, el tema fácil, los solos el primero
Fácil el segundo jodido, las dudas alevoodoo@ovi.com

Intro (C G Am Em F C Am G) x2
(Acapela)
No tendré nada que decir, solo una mirada queda para ti,
Mi razón para sonreír, es que cada día seas más feliz... por mí.

C                  Em                 F                   C  G
Quiero tomar de tu mano, sentir el abrazo que siempre me das
C                     Em                     F                 C  G
Sabes que guardo un recuerdo, tan dentro de mí, tan dentro de t
Dm                  G           C     G  Am          F         G
Nunca te voy a olvidar, porque no regresará, Porque no regresará

ESTRIBILLO
C       G Am          Em   F          C    Am         G
No tendré nada que decir, solo una mirada queda para ti
C     G  Am       Em   F            C  Am          G          C
Mi razón para sonreír, es que cada día seas más feliz... por mí

C                Em                   F                    C  G
Todo el tiempo vivido, hoy queda guardado en el fondo del mar
 C                        Em                 F                C  G
Juntos quiero estar por siempre me diste la vida me diste la paz
Dm                 G           C     G   Am       F         G
Nunca te voy a olvidar porque no regresará nadie como tú jamás.

ESTRIBILLO

SOLO
E---------8^7-5----------5-----5------------------------------
B-5~-6-8~-------5-8~-/-----8-6---8^--6p5h6~-------------------
G----------------------------------------------5-7^-7p5h7~----
D--------------------------------------------7----------------
A-------------------------------------------------------------
E-------------------------------------------------------------

E--/22~-20~---17h19h20p19p17h20p19p17p------------------------
B-------------------------------------20p18p17p--------20-----
G----------------------------------------------19^17h19--19^/-
D-------------------------------------------------------------
A-------------------------------------------------------------
E-------------------------------------------------------------

E--13-15-/17-15-13---12-13-/15-13-12---10-12-/13--12--10~-----
B-------------------------------------------------------------
G-------------------------------------------------------------
D-------------------------------------------------------------
A-------------------------------------------------------------
E-------------------------------------------------------------

Dm                 G           C     G   Am       F         G
Nunca te voy a olvidar porque no regresará nadie como tú jamás.
ESTRIBILLO
C       G Am          Em   F          C    Am         G
No tendré nada que decir, solo una mirada queda para ti
C     G  Am       Em   F            C  Am          G          C
Mi razón para sonreír, es que cada día seas más feliz... por mí

C       G Am          Em F           C    Am         G
No tendré nada que decir solo una mirada queda para ti
C     G   Am            Em F                C        Am            G
Es mejor que te olvide ya porque guardo un sueño que tengo por llevar
       C
Hacia ti.

SOLO 2
*es un efecto que se hace rozando la cuerda con el pulgar al
Pulsarla con la púa.
E-------------------------------------------------------------------
B---------------------------12-15~--15p13p12h13--12h13p12p----------
G--14~--(12)/10-12~---12-14-------------------------------14~-14^*--
D-------------------------------------------------------------------
A-------------------------------------------------------------------
E-------------------------------------------------------------------

E-17~-/13-15~---13h17p15p13/12h13p12p-----------------------
B------------------------------------13h15^--15^-(13)h15~---
G-----------------------------------------------------------
D-----------------------------------------------------------
A-----------------------------------------------------------
E-----------------------------------------------------------

E--/22~-20~--(20)/(17)p15h17~--17^-/--
B-------------------------------------
G-------------------------------------
D-------------------------------------
A-------------------------------------
E-------------------------------------
//muy rápido, algo así creo
E-----12h15p13p12h15p13p12h15p13p12p----------
B-/15h------------------------------13h15~-/--
G---------------------------------------------
D---------------------------------------------
A---------------------------------------------
E---------------------------------------------

E-----20-----------------------------------------------------------
B-/22----22~---/17-18-20-18~--------13-15^-15p13h15~--17-18-17~--
G----------------------------------/14-----------------------------
D------------------------------------------------------------------
A------------------------------------------------------------------
E------------------------------------------------------------------

Referencias:
h: ligado ascendente
p: ligado descendente
^: estirar
^r: estirar y volver
~: vibrato
/: Slide
*: Armónico de púa
‘: tremolo de púa
(): comienza el arrastre pero sin plsar
Versión 2 - Mi Razón (Letra y acordes)
Bueno pos aqui les dejo una version facil de tocar,
en buen tono disfrutenla, esta completa
y bueno va para el 6 "G" T.V.
De la ermilo sandoval(Campeche) 2004-2007 Quimico-biologos.




No tendré nada que decir
Solo una mirada queda para ti
Mi razón para sonreír
Es que cada día seas más feliz… por mí

intro C-Em-F-C-G

C                  Em
Quiero tomar de tu mano
             F                   C  G
Sentir el abrazo que siempre me das
 C                     Em
Sabes que guardo un recuerdo
               F                C  G
Tan dentro de mí, tan dentro de ti
 Dm                 G
Nunca te voy a olvidar
       C      G  Am
Porque no regresará
       F          G
Porque no regresará


ESTRIBILLO

C       G Am          Em
No tendré nada que decir
F           C    Am         G
Solo una mirada queda para ti
C     G  Am        Em
Mi razón para sonreír
F            C  Am          G        C
Es que cada día seas más feliz… por mí


C                Em
Todo el tiempo vivido
               F
Hoy queda guardado
                 C   G
En el fondo del mar

 C                        Em
Juntos quiero estar por siempre
             F
Me diste la vida
             C  G
Me diste la paz

 Dm                 G
Nunca te voy a olvidar
        C     G   Am
Porque no regresará
       F         G
Nadie como tú jamás

ESTRIBILLO

SOLO
  Dm                G
Nunca te voy a olvidar
        C     G    Am
Porque no regresará
       F         G
Nadie como tú jamás

C       G Am          Em
No tendré nada que decir
F           C    Am         G
Solo una mirada queda para ti
C     G  Am        Em
Mi razón para sonreír
F            C  Am          G        C
Es que cada día seas más feliz… por mí

C       G Am          Em
No tendré nada que decir
F           C    Am         G
Solo una mirada queda para ti

C     G   Am            Em
Es mejor que te olvide ya
 F                C        Am            G
Porque guardo un sueño que tengo por llevar
       C
hacia ti.
Versión 3 - Mi Razón (Letra y acordes)
estos son los acordes originales,de mi razon:

No tendre nada que decir
Solo una mirada queda para ti
Mi razón para sonreir
Es que cada dia seas mas feliz ohh por mí uuoohh

intro:B

B                  F#
Quiero tomar de tu mano
             E                  B    F#
Sentir el abrazo que siempre me daaaaaaas

Sabes que guardo un recuerdo
Tan dentro de mi, tan dentro de ti
E                 F#
Nunca te voy a olvidar
       B      F#   G#m
Porque no regresará
       E         F#
Porque no regresará...

Estribillo:

B      F#   G#m      D#m
No tendré nada que decir
E          B      C#       F#
Solo una mirada queda para ti
B     F#   G#m      D#m
Mi razón para sonreír
E            B   C#       F#              B
Es que cada día seas más feliz…huoo por miiii..

despues la cancion sigue con los mismos acordes,
en el primer solo los acordes son los del estribillo y cae en:

E                 F#
Nunca te voy a olvidar
       B      F#   G#m
Porque no regresará
  E             F#
nadie como tu jamas...


estribillo

en el segundo solo los acordes tmb son los del estribillo

la cancion termina con:B

saludos a todos los chikos de v.c.p,cualquier duda manden a mi meil
Versión 4 - Mi Razón (Letra y acordes)
No tendré nada que decir
Solo una mirada queda para ti
Mi razón para sonreír
Es que cada día seas más feliz… por mí

intro C-C

C                G
Quiero tomar de tu mano
            Am                   F
Sentir el abrazo que siempre me das
 C                    G
Sabes que guardo un recuerdo
             Am                F
Tan dentro de mí, tan dentro de ti
 C                G
Nunca te voy a olvidar
       Dm    Am   G
Porque no regresaráS
       Dm    Am   G
Porque no regresaráS


CORO:

C       G Am          F
No tendré nada que decir
Dm          Am    G
Solo una mirada queda para ti
C     G  Am        F
Mi razón para sonreír
Dm           Am             G       G
Es que cada día seas más feliz… o por mí,oooo


C                G
Todo el tiempo vivido
               Am
Hoy queda guardado
                 F
En el fondo del mar

 C                        G
Juntos quiero estar por siempre
             Am
Me diste la vida
             F
Me diste la paz

 C                 G
Nunca te voy a olvidar
        Dm   Am  G
Porque no regresará
       Dm   Am   G
Nadie como tú jamás

CORO:

C       G Am          F
No tendré nada que decir
Dm        Am      G
Solo una mirada queda para ti
C     G  Am        F
Mi razón para sonreír
Dm       Am                 G      G
Es que cada día seas más feliz… o por mí,ooo
C       G Am          F
No tendré nada que decir
Dm        Am     G
Solo una mirada queda para ti
C     G   Am            F
Es mejor que te olvide ya
 Dm         Am        G
Porque guardo un sueño que tengo por llevar
      G
hacia ti.

ALGUN PROBLE MI CORREO ESTA HAY ARRIBA
CHAU,,,,,,,,,,,,,,

El material contenido en esta página es para exclusivo uso privado y con propósito meramente educativo, se prohibe su reproducción y uso con fines comerciales