Pensar

Tabs, letra y acordes de 'Pensar' por No Te Va Gustar

Versiones disponibles: Tablatura para guitarra (TAB) - Letra y acordes - Tablatura para guitarra (TAB) - Tablatura para bajo (bass tab)

El riff se toca con octavas, para hacerlas bien hay que apagar
la nota del medio con el dedo que tocas la tónica.


E|----------------------------------------------------------|
B|----------------------------------------------------------|
G|-------9--8--5--7x---------9--8--5--77x-------9--8--5--7x-|
D|---7-------------------7------------------7---------------|
A|-------7--6--3--5x---------7--6--3--55x-------7--6--3--5x-|
E|---5-------------------5------------------5---------------|

E|------------------------------------|
B|------------------------------------|
G|------------------------------------|X2
D|---77--99--1010--1111--12-1212x-----|
A|------------------------------------|
E|---55--77---88----99---10-1010x-----|


E|-----8b-------|
B|--------------| Esta nota la engancha con
G|--------------| el verso
D|--------------|
A|--------------|
E|--------------|


     Am                 Dm       G
había una vez en un pequeño país
     Am                 Dm       G
donde alguna gente se sentía feliz
     Am                 Dm       G
un alma chiquitita se quiso escapar,
     Am                 Dm       G
pero no le daba para cruzar el mar
     Am                 Dm  G
y le dijeron vas mal, muy mal,
     Am                 Dm      G
eso no se hace, tenés que pensar
     Am
y pensar...
     Dm       G          Am        Dm    G
con hambre no se puede pensar, no se puede


E|----------------------------------------------------------|
B|----------------------------------------------------------|
G|-------9--8--5--7x---------9--8--5--77x-------9--8--5--7x-|
D|---7-------------------7------------------7---------------|
A|-------7--6--3--5x---------7--6--3--55x-------7--6--3--5x-|
E|---5-------------------5------------------5---------------|

E|------------------------------------|
B|------------------------------------|
G|------------------------------------|
D|---77--99--1010--1111--12-1212x-----|
A|------------------------------------|
E|---55--77---88----99---10-1010x-----|


     Am                   Dm          G
y esperó y esperó y el momento no llegó
     Am                   Dm               G
con el correr del tiempo estaba cada vez peor
     Am    Dm       G             Am
y cedió, tiraron de la cuerda y cedió
     Dm       G             F
y ahora ya no hay vuelta atrás...
   E                  F
todo vuelve a ir para atrás...
   E                  F
ya no está consciente, atrás...
   E                  G
y ahora ya no hay vuelta atrás
    E
la realidad le miente


     Am               Dm           G
E|---5------------5--5--5--------8b8b-------|
B|-------8--5--8-----------8--5-------------|
G|------------------------------------------|
D|------------------------------------------|
A|------------------------------------------|
E|------------------------------------------|
     Am               Dm         G
E|---5-----------------------------------|
B|------8--5-----5-----------------------|
G|------------7-----7--7--5--------------|X2
D|---------------------------7--5--(5)---|
A|---------------------------------------|
E|---------------------------------------|


(sobre este verso toca este punteito raro)

un alma chiquitita se quiso escapar
pero no le daba para cruzar el mar
y le dijeron vas mal, muy muy mal
                  (silencio)
eso no se hace, tenés que pensar

  Am              Dm      G         Am
y pensar... con hambre no se puede pensar
  Dm    G     Am
no se puede pensar
  Dm       G            Am
con hambre no se puede pensar
  Dm     G
no se puede

E|----------------------------------------------------------|
B|----------------------------------------------------------|
G|-------9--8--5--7x---------9--8--5--77x-------9--8--5--7x-|
D|---7-------------------7------------------7---------------|
A|-------7--6--3--5x---------7--6--3--55x-------7--6--3--5x-|
E|---5-------------------5------------------5---------------|

E|------------------------------------|
B|------------------------------------|
G|------------------------------------|
D|---77--99--1010--1111--12-1212x-----|
A|------------------------------------|
E|---55--77---88----99---10-1010x-----|



Bueno creo q está perfecto, es muy fácil de tocarlo.
Un aguante para CORTE LOKO rnr!!
Versión 2 - Pensar (Letra y acordes)
Intro(tocar con quintas)
(LA-MI-RE#-DO-RE)X3(LA-SI-DO#-RE)


LAm            REm     SOL
Habia una vez un pequeño pais
Donde alguna gente se sentia feliz
Un alma chiquitita se quiso escapar
Pero no le daba para cruzar el mar
Y le dijieron vas mal,muy mal
Eso no se hace,tenes que pensar.

   LAm
Y pensar
   REm     MI     LAm
Con hambre no se puede pensar
REm    MI
No se puede.

INTRO

LAm              REm       SOL
Y espero y espero y el momento no llego
Con el correr del tiempo estaba cada vez peor
 LAm    REm        MI       LAm
Y cedio,tiraron de la cuerda y cedio
 REm           MI   REm
Y ahora ya no hay vuelta atras
DO              REm
Todo vuelve a ir para atras
DO              REm
Ya no esta consciente atras
DO              MI
Y ahora ya no hay vuelta atras
La realidad le miente.

Un alma chiquitita...


Con hambre no se puede pensar...


Esta es mi primera transcripcion espero que les guste.
Cualquier consulta mandar a joacosampi_92@hotmail.com

Un saludo para toda la escuela borges.
Versión 3 - Pensar (Tablatura para guitarra (TAB))
El riff se toca con octavas, para hacerlas bien hay que apagar
la nota del medio con el dedo que tocas la tónica.


E|----------------------------------------------------------|
B|----------------------------------------------------------|
G|-------9--8--5--7x---------9--8--5--77x-------9--8--5--7x-|
D|---7-------------------7------------------7---------------|
A|-------7--6--3--5x---------7--6--3--55x-------7--6--3--5x-|
E|---5-------------------5------------------5---------------|

E|------------------------------------|
B|------------------------------------|
G|------------------------------------|X2
D|---77--99--1010--1111--12-1212x-----|
A|------------------------------------|
E|---55--77---88----99---10-1010x-----|


E|-----8b-------|
B|--------------| Esta nota la engancha con
G|--------------| el verso
D|--------------|
A|--------------|
E|--------------|


     Am                 Dm       G
había una vez en un pequeño país
     Am                 Dm       G
donde alguna gente se sentía feliz
     Am                 Dm       G
un alma chiquitita se quiso escapar,
     Am                 Dm       G
pero no le daba para cruzar el mar
     Am                 Dm  G
y le dijeron vas mal, muy mal,
     Am                 Dm      G
eso no se hace, tenés que pensar
     Am
y pensar...
     Dm       G          Am        Dm    G
con hambre no se puede pensar, no se puede


E|----------------------------------------------------------|
B|----------------------------------------------------------|
G|-------9--8--5--7x---------9--8--5--77x-------9--8--5--7x-|
D|---7-------------------7------------------7---------------|
A|-------7--6--3--5x---------7--6--3--55x-------7--6--3--5x-|
E|---5-------------------5------------------5---------------|

E|------------------------------------|
B|------------------------------------|
G|------------------------------------|
D|---77--99--1010--1111--12-1212x-----|
A|------------------------------------|
E|---55--77---88----99---10-1010x-----|


     Am                   Dm          G
y esperó y esperó y el momento no llegó
     Am                   Dm               G
con el correr del tiempo estaba cada vez peor
     Am    Dm       G             Am
y cedió, tiraron de la cuerda y cedió
     Dm       G             F
y ahora ya no hay vuelta atrás...
   E                  F
todo vuelve a ir para atrás...
   E                  F
ya no está consciente, atrás...
   E                  G
y ahora ya no hay vuelta atrás
    E
la realidad le miente


     Am               Dm           G
E|-------------------------------8b8b-------|
B|---10--8-----8--10-10-10-8----------------|
G|-----------9-----------------9------------|
D|------------------------------------------|
A|------------------------------------------|
E|------------------------------------------|
     Am               Dm         G
E|------------------------------------------|
B|--10--8-----8-----8-----------------------|
G|---------9-----9-----9--7--5--------------|X2
D|------------------------------5--7--5--7--|
A|------------------------------------------|
E|------------------------------------------|


(sobre este verso toca este punteito raro)

un alma chiquitita se quiso escapar
pero no le daba para cruzar el mar
y le dijeron vas mal, muy muy mal
                  (silencio)
eso no se hace, tenés que pensar

  Am              Dm      G         Am
y pensar... con hambre no se puede pensar
  Dm    G     Am
no se puede pensar
  Dm       G            Am
con hambre no se puede pensar
  Dm     G
no se puede

E|----------------------------------------------------------|
B|----------------------------------------------------------|
G|-------9--8--5--7x---------9--8--5--77x-------9--8--5--7x-|
D|---7-------------------7------------------7---------------|
A|-------7--6--3--5x---------7--6--3--55x-------7--6--3--5x-|
E|---5-------------------5------------------5---------------|

E|------------------------------------|
B|------------------------------------|
G|------------------------------------|
D|---77--99--1010--1111--12-1212x-----|
A|------------------------------------|
E|---55--77---88----99---10-1010x-----|



Bueno creo q está perfecto, es muy fácil de tocarlo.
Un aguante para CORTE LOKO rnr!!
Versión 4 - Pensar (Tablatura para bajo (bass tab))
intro: primara parte, la guitarra sola, luego esto

G-----------------/------------------/-----------------------
D-----------------/------------------/-----------------------
A-----77-66-33-55-/-----77-66-33-555-/-----------------------X2
E--55-------------/--55--------------/-----------------------

G-------------------------------------
D-------------------------------------
A-------------------------------------
E--55778899101010--------------------
verso:

G----------------------/--------------------/
D--------5--77---------/-----5-77-----5-5---/
A------7-------555-----/---7------555-----5-/
E----5--------------33-/-5------------------/


en la parte que dice:"todo vuelve a ir...."


G-------------------/----/-----------------------------
D-------------25252-/----/-----------------------------
A------3-5----------/-X3-/----------11-11-11-11-11-----
E--1-5-----5--------/----/--3333333--------------------



El estribillo esd igual que el verso.


bueno asi es todo el tema espero q les sirva
 aguante ntvg y barata rock

El material contenido en esta página es para exclusivo uso privado y con propósito meramente educativo, se prohibe su reproducción y uso con fines comerciales