Zoey 101

Acordes de la canción 'Zoey 101' de Música de TV

Esto aparece al final de akgunos capitulos, estero que les guste.

e:------------12-13-12-10--------------------12-13-15-10---------
B:-13--10-10--------------13-12---13--10-10--------------13-12---
G:---------------------------------------------------------------
D:---------------------------------------------------------------
A:---------------------------------------------------------------
E:---------------------------------------------------------------
                                                               C
e:------------12-13-12-10--------------------12-13-12-10-------0-
B:-13--10-10--------------13-12---13--10-10--------------13-12-1-
G:-------------------------------------------------------------0-
D:-------------------------------------------------------------2-
A:-------------------------------------------------------------3-
E:-------------------------------------------------------------0-

El material contenido en esta página es para exclusivo uso privado y con propósito meramente educativo, se prohibe su reproducción y uso con fines comerciales