The X Files

Acordes de la canción 'The X Files' de Música de TV

Versiones de esta canción: Tablatura para guitarra (TAB) - Letra y acordes

Esta es una correcion de la anterior

Un saludo pa' cañetecity de FraFri, tambien uno
pal octavo del isj
 y otro pa' mis amigos diego y lore, y pa' marce igual

e|----------------------------------------------
B|----------------------------------------------
G|----------------------------------------------
D|----2-0-2-5-2-----2-0-2-7-2-------------------
A|-0-------------0------------------------------
E|----------------------------------------------

e|----------------------------------------------
B|----------------------------------------------
G|-5-4-2-0-2------5-4-2-0-4---------------------
D|-----------2---------------2------------------
A|----------------------------------------------
E|----------------------------------------------
Versión 2 - The X Files (Letra y acordes)
|---5-3-5-8-5-|---5-3-5-10-5-|-13-12-10-8-12-7-|
|-5-----------|-5------------|-----------------|
|-------------|--------------|-----------------|
|-------------|--------------|-----------------|
|-------------|--------------|-----------------|
|-------------|--------------|-----------------|

|-13-12-10-8-12-7-|
|-----------------|
|-----------------|
|-----------------|
|-----------------|
|-----------------|

El material contenido en esta página es para exclusivo uso privado y con propósito meramente educativo, se prohibe su reproducción y uso con fines comerciales