The legend of Zelda: ocarina of time - shop

Acordes de la canción 'The legend of Zelda: ocarina of time - shop' de Música de TV

E--3-3---1-3----------------
B------3---------3-1-0------
G----------------------0----
D------------------------3-0
A---------------------------
E---------------------------

E--------------------------------------------
B--1--1-1---------1---------1-1-0--0-0-------
G---------2-2-0-----0-0-2-2------------2-2-0-
D--------------------------------------------
A--------------------------------------------
E--------------------------------------------

E----------------------------------------------------
B------------0--0-0---------0--------0--1--1-1--1-1-1
G--0-2-2-3-3--------2-2-0-----0-0-2------------------
D----------------------------------------------------
A----------------------------------------------------
E----------------------------------------------------

E--------------------------------------------
B--1--1-1---------1---------1-1-0--0-0-------
G---------2-2-0-----0-0-2-2------------2-2-0-
D--------------------------------------------
A--------------------------------------------
E--------------------------------------------

E----------------------------------------------------
B------------0--0-0---------0--------0--1--1-1--1-1-1
G--0-2-2-3-3--------2-2-0-----0-0-2------------------
D----------------------------------------------------
A----------------------------------------------------
E----------------------------------------------------

E-----------------------------------------------------
B-1-3-5-6-1--------6-5-1---------------------6-6-5-3-5
G------------2---2-------0---0-2-3-4-2-0---0----------
D-----------------------------------------------------
A-----------------------------------------------------
E-----------------------------------------------------

E-----------------------------------------------------
B-1-3-5-6-1--------6-5-1---------------------3-1-0-1--
G------------2---2-------0---0-2-3-4-2-0---0----------
D-----------------------------------------------------
A-----------------------------------------------------
E-----------------------------------------------------


...Pronto subire un cover

El material contenido en esta página es para exclusivo uso privado y con propósito meramente educativo, se prohibe su reproducción y uso con fines comerciales