Surfing Rides - Natural Brown

Acordes de la canción 'Surfing Rides - Natural Brown' de Música de TV

Intro:

1------------------------------------------------------7-9-7--
2---5/10------5h7----5h7-5------------------------7-10------10
3--------------------------6----6h4-2-4-2---------------------
4----------------------------------------4--------------------
5-------------------------------------------------------------
6-------------------------------------------------------------

A-Bm

A                      Bm
Amanece y siempre huele a sal
A              Bm
En el mundo natural
A                        Bm
Mama siempre llama a ver que tal
A                 Bm
Para ella es religión

A                     Bm
Hace años que me vio partir
A                 Bm
Hace tanto estoy aquí
A                          Bm
Siempre supo que buscaba el sol
A              Bm
Y una ola pa’ vivir

(En esos 2 acordes se basa toda la canción)

Y vivir la vida diferente
Deslizarme para despegar
Equilibrio con toda la gente
Abrazar las olas con el mar

Mama siempre extraño ese lugar
Cómo extraño su calor
Caminar por esa vecindad
Y la playa recorrer

La distancia me hace recordar
Y las penas continuar
Y aunque lejos de mi sangre esté
Aquí tengo a mi mujer

Y vivir la vida diferente
Deslizarme para despegar
Equilibrio con toda la gente
Abrazar las olas con el mar

Solo:

1--------------------------------------12-14-12-------------------
2-12h14------14h12--12-------12------14------------14h12---12-----
3-----------------14---14--11----------------------------14--14--11
4-----------------------------------------------------------------
5-----------------------------------------------------------------
6-----------------------------------------------------------------


1-------------------------------------------------------------------
2-----------12------------------10-----10------10----10-----10----12
3--11--14--11----14-11------9h11---9h11---9h11---9h11---9h11---9----
4-------------------------------------------------------------------
5-------------------------------------------------------------------
6-------------------------------------------------------------------


1-------------------------12------12------12------12-----12---14---
2---12-10---10------12h14---12h14---12h14---12h14---12h14---12-----
3--------11--------------------------------------------------------
4------------------------------------------------------------------
5------------------------------------------------------------------
6------------------------------------------------------------------


1---14-12---12--------------------
2--------14-------12-10-12-10-----
3------------------------------11-
4---------------------------------
5---------------------------------
6---------------------------------



Y vivir la vida diferente
Deslizarme para despegar
Equilibrio con toda la gente
Abrazar las olas con el mar

...



A= 577655
BM= 799777



Creo que se escucha muy muy bien…
Si tenés guitar pro [5.2]
Espera un poco y voy a subir la pieza

Comentarios, dudas, escriban:

Mariaalejandra31292@hotmail.com

El material contenido en esta página es para exclusivo uso privado y con propósito meramente educativo, se prohibe su reproducción y uso con fines comerciales