Saint seiya - nocturno de orfeo

Acordes de la canción 'Saint seiya - nocturno de orfeo' de Música de TV

Versiones de esta canción: Tablatura para guitarra (TAB) - Tablatura para guitarra (TAB)

esta es la melodia que toca orfeo (siempre :P)en la saga de hades.
Lo puse 1 tono arriba porque resulta mas facil de tocar asi.
El intro es el que toca en la ova 18 y los acordes finales son
como los toca en la ova 16.

String nocturne 1 tono p/arriba
intro
E |------------------------------------------------------------------|
B |------------------------------------------------------------------|
G |--2--------------2---------------2---------0-----2---------0------|
D |--0-----2--3~----0-----2--3~-----0------3--------0------3---------|
A |-----0--------------0---------------0---2-----------0---2---------|
E |------------------------------------------------------------------|
     Dm                             Dm/B


E |----------------------------0-1-0---------------------------------|
B |--------------------------3-------3-------------------------------|
G |--2-2---2-3-2---2-3-2---2-----------2-3~----0-0---0-2-0----0-2-0--|
D |------------------------------------------------------------------|
A |------------------------------------------------------------------|
E |------------------------------------------------------------------|
                                         Gm


E |----0-1-3-0---------------------------------------------0-1-0---5-3~-|
B |------------------------------------------------------3-------3------|
G |--2---------2-0-------0-2---2-3-2---2-3-2---2-3-2---2----------------|
D |----------------3---3------------------------------------------------|
A |---------------------------------------------------------------------|
E |---------------------------------------------------------------------|
            A       Dm                                           Gm

E |-0-1-3~---3-5-3---3-5-3---3-5-3-----0-1---3----0----3----0----1-----|
B |------------------------------------------2----2----3----2----3-----|
G |------------------------------------------0----2----3----2----2-----|
D |------------------------------------------2----2----5----2----------|
A |----------------------------------------------------5---------------|
E |----------------------------------------------------3---------------|
                                          C#dim   A    Gm   A    Dm
Versión 2 - Saint seiya - nocturno de orfeo (Tablatura para guitarra (TAB))
String Nocturne, Lira de Orfeo

La escribí con ayuda de otra tablatura pero que estaba medianamente hecha
y tenía algunos errores,si la pueden mejorar adelante :) ojala les ayude


Duilio Fonseca G.




           x2            x2
e|-----------|-------------|------------------------8-10-11-10-8----
B|--8--------|--8----------|-8-8---8-9-8---8-9-8---8-------------8-9
G|-----0-7-8-|------7-8-10-|----------------------------------------
D|--10-------|--10---------|----------------------------------------
A|-----------|-------------|----------------------------------------
E|-----------|-------------|----------------------------------------

                                                      x3
e|----------------------------------10-11-13-10--------|------------
B|-------------8---------8--------8------------8-------|------------
G|--10-10---10---10---10---10---------------------10-8-|------------
D|-----------------------------------------------------|------------
A|-----------------------------------------------------|------------
E|-----------------------------------------------------|------------


e|-----------------------------------8-10-11-10-8-15-13-------------
B|----6-8---8-9-8---8-9-8---8-9-8---8-------------------------------
G|--8---------------------------------------------------------------
D|------------------------------------------------------------------
A|------------------------------------------------------------------
E|------------------------------------------------------------------


e|--10-11-13---13-15-13--13-15-13--13-15-13---10-11-13--------------
B|-------------------------------------------------------8---9---8--
G|--------------------------------------------------13---10--10--10-
D|------------------------------------------------------------------
A|------------------------------------------------------------------
E|------------------------------------------------------------------


e|--8---------8--8---||
B|--8--------8---8---||
G|----------8----8---||
D|--------10-----10--||
A|------10-------10--||
E|-----8---------8---||

El material contenido en esta página es para exclusivo uso privado y con propósito meramente educativo, se prohibe su reproducción y uso con fines comerciales