Saint seiya - abel theme

Acordes de la canción 'Saint seiya - abel theme' de Música de TV

Que onda carnales see soy EL MEXICANO wuu !
Bueno para toda la banda que le gusta el saint Seiya
               ->Facil<--
=O Dificultad :  Intermedio
                 Dificil

||7--10--12--9------7--10>14--14-17-19--16-14-12-14--------------
||7----------10-10--7---------15--------17-------15--------------
||7----------9------7---------14--------16-------14------------
||9----------11-----9--------------------------------------------
||9-----------------9--------------------------------------------
||7-----------------7--------------------------------------------



||7--10--12--9------7--10>14--12-10-9---9------------------------
||7----------10-10--7---------14----------12-10-12---------------
||7----------9------7---------14---------------------------------
||9----------11-----9--------------------------------------------
||9-----------------9--------------------------------------------
||7-----------------7--------------------------------------------



||-17-19-17-16-14--16-17-191719-16-14---10-12-101210-9--7--------
||---------------------------------------------------------------
||---------------------------------------------------------------
||---------------------------------------------------------------
||---------------------------------------------------------------
||---------------------------------------------------------------


es Todo hehe suena bien se repite varias veces y pueden
cambiar el ultimo rekinto para
terminar la cancion con cejilla en 7to

10-12-101210-9--5--7
-------------------7
-------------------7
-------------------9
-------------------9
-------------------7

Esta shida la version ojala les sirva
Dudas, quejas, sugerencias, consejos
regaños, mentadas XD esas aka --> kraken_x1@hotmail.com
Saludos desde Morelia,Michoacán, México

El material contenido en esta página es para exclusivo uso privado y con propósito meramente educativo, se prohibe su reproducción y uso con fines comerciales