Ranma 1/2

Acordes de la canción 'Ranma 1/2' de Música de TV

------------5-7-5--------------5-7-7------------5-7-5--
----7-7-7-7-7-----7---7-7-7-7-7---------7-7-7-7-7-----7
-------------------------------------------------------
-------------------------------------------------------


---------5-7-7--5-7-9-7-9-7-5-9--5-7-9-9-9-7-9-7-5-5---
7-7-7-7-7----------------------------------------------
-------------------------------------------------------
-------------------------------------------------------

El material contenido en esta página es para exclusivo uso privado y con propósito meramente educativo, se prohibe su reproducción y uso con fines comerciales