Pantera Rosa

Acordes de la canción 'Pantera Rosa' de Música de TV

Versiones de esta canción: Tablatura para bajo (bass tab) - Tablatura para guitarra (TAB) - Tablatura para guitarra (TAB) - Tablatura para guitarra (TAB) - Tablatura para bajo (bass tab)

Intro

G|---------------------|
D|---------------------|
A|-4h5-6h7-------------|
E|-----------7--0------|x4

primera parte

G|----------------------5-4-----------------|
D|---------4-5------4-5-------5-9-8-5-------|
A|-4-5-6-7-----6-7----------7---------7-5-7-|
E|------------------------------------------|

segunda parte

G|---------------------5-4-----7-5--------|
D|---------4-5-----4-5-------5------------|
A|-4-5-6-7-----6-7---------7--------------|
E|----------------------------------------|

se repite la primera parte


el final
G|---------9-7--------------------------------------|
D|-------------9-7-5-7h8-7h8-7h8-5------------------|
A|-4-5-6-7-------------------------7-5-7------------|
E|---------------------------------------7-0--------|
Versión 2 - Pantera Rosa (Tablatura para guitarra (TAB))
e||---------------------|--------------------|--------------------|
B||---------------------|--------------------|--------------------|
G||·--------------------|--------------------|-----------------0--|
D||·-----0--1--2--------|-----0--1--2--------|-----0--1--2--4-----|
A||---4-----------2-----|--4-----------2-----|--4-----------------|
E||------------------0--|-----------------0--|--------------------|

e||---------------------|--------------|------------------|
B||---------------1--0--|--------------|------------------|
G||------------0--------|-----0--4--3--|--2--0------------|
D||---1--2--4-----------|--2-----------|--------2--0--2---|
A||---------------------|--------------|------------------|
E||---------------------|--------------|------------------|

e||---------------------|--------------------|--------0-----------|
B||---------------------|--------------1--0--|-----0-----4--5-----|
G||------------------0--|-----------0--------|--0-----------------|
D||------0--1--2--4-----|--1--2--4-----------|--------------------|
A||---4-----------------|--------------------|--------------------|
E||---------------------|--------------------|--------------------|

e||---------------|--0-----------------|-----------------------|
B||---------------|-----3--0-----------|-----------------------|
G||---------------|-----------2--0-----|--3/2--3/2--3/2--3/2---|
D||------0--1--2--|-----------------2--|-----------------------|
A||---4-----------|--------------------|-----------------------|
E||---------------|--------------------|-----------------------|

e||------------------|----------|----------------------||
B||------------------|----------|----------------------||
G||---0--------------|--2/0-----|--0------------------·||
D||------2--0--2--2--|-------2--|-----2--0--2--2------·||
A||------------------|----------|----------------------||
E||------------------|----------|----------------------||



SALU2 A TODOS , EN ESPECIAL A LOS CRXZADOS DE CHILE!!!!!
Versión 3 - Pantera Rosa (Tablatura para guitarra (TAB))
E|---------------
B|---------------
G|---------------
D|---------------       DEJAR SONAR 3 TIEMPOS
A|--4/5--6/7-----      (En estos tiempos puedes golpear la guitarra
E|--------------- X 2   para marcar los tiempos o chasquiar los dedos)


E|--------------------------------|-----------
B|--------------------------------|-----------
G|----------------------------5/4-|------4/3--
D|------------4/5--------4/5------|-2/5-------
A|--4/5--6/7-------6/7------------|-----------
E|--------------------------------|-----------


E|---------------------
B|---------------------
G|---------------------
D|---7----5/7-5-------- SE TOCA RAPIDO
A|--------------7-5/7--
E|---------------------


E|--10/12--10-------------------------------------------------------
B|--------------12--10--------9/10-9/10--9/10--9/10--8--------------
G|----------------------12--9---------------------------9--7/9--7/9-
D|------------------------------------------------------------------
A|------------------------------------------------------------------
E|------------------------------------------------------------------

SE REPITE DESDE EL PRINCIPIO Y ACABA ASI

E|--7-5-3-0-3-5-3--------------------------
B|-----------------------------------------
G|-----------------------------------------

SI TIENEN PROBLEMAS CON LA CANCION MANDENME UN CORREO A:
odyzhium@gmail.com

suerte ;)
Versión 4 - Pantera Rosa (Tablatura para guitarra (TAB))
1----------------------------------------------
2----------------------------------------------
3----------------------------------------------
4------------1/2-------------1/2-----2/1-------
5------4/5--------4/5-----------------------5/4
6----------------------------------------------


1----------------------------------------------------------------
2----------------------------------------------------------------
3-------------------------------------5/4--------4/2-----2/0-----
4------1/2----4/5-----1/2-------4/5--------2/5--------------2/0/2
5--4/5-----------------------------------------------------------
6----------------------------------------------------------------

1--------------------------------------------------------
2-----------------------------------------------------5/4
3----------------------------------------5/4-----4-------
4--------1/2-----4/5-----1/2-------4/5---------5---------
5--4/5---------------------------------------------------
6--------------------------------------------------------



1----------------------------------------------------------------
2----------------------------------------------------------------
3-------------------------------------5/4--------4/2-----2/0-----
4------1/2----4/5-----1/2-------4/5--------2/5--------------2/0/2
5--4/5-----------------------------------------------------------
6----------------------------------------------------------------


1--------------------------------------------------------------------
2---------------3/5-----3--------------------------------------------
3--------------------------4---2-----------3/2-3/2-3/2-3/2-2/0-------
4--------1/2----------------------5--2--------------------------2/0/2
5---4/5--------------------------------------------------------------
6--------------------------------------------------------------------
Versión 5 - Pantera Rosa (Tablatura para bajo (bass tab))
Intro

G|---------------------|
D|---------------------|
A|-4h5-6h7-------------|
E|-----------7--0------|

G|---------------------|
D|---------------------|
A|-7h6-5h4-------------|
E|-----------4--0------|(x2)

primera parte

G|----------------------5-4-----------------|
D|---------4-5------4-5-------5-9-8-5-------|
A|-4-5-6-7-----6-7----------7---------7-5-7-|
E|------------------------------------------|

segunda parte

G|---------------------5-4-----7-5--------|
D|---------4-5-----4-5-------5------------|
A|-4-5-6-7-----6-7---------7--------------|
E|----------------------------------------|

se repite la primera parte


el final
G|---------9-7--------------------------------------|
D|-------------9-7-5-7h8-7h8-7h8-5------------------|
A|-4-5-6-7-------------------------7-5-7------------|
E|---------------------------------------7-0--------|

El material contenido en esta página es para exclusivo uso privado y con propósito meramente educativo, se prohibe su reproducción y uso con fines comerciales